>
 >
Heads On The Wall

Heads On The Wall Bass Tabs

King Diamond - Heads On The Wall chords, tabs, tablatures, lyrics

Guitar lessons | Add/correct | Request | Top 50 tabs Artists:  A B C D E F G H I J K L M N O P Q R S T U V W X Y Z 0-9

Heads On The Wall Bass Tabs – King Diamond

CD, Sheet music, Poster

Do you like Heads On The Wall? Share with your friends now
Bass TabsTabsTabs v2
G||--------------------------|--------------------------|
D||--------------------------|--------------------------|
A||--------------------------|--------------------------|
E||--------------------------|--------------------------|


                                                            
-----------------------------|-----------------------------|
-----------------------------|-----------------------------|
--0/-----------12------------|--0------7-------------------|
-----------------------------|----------------5~-----------|


                                                           
----------------------------|-----------------------------|
----------------------------|-----------------------------|
--5------------8------------|--5------------0------3------|
----------------------------|-----------------------------|


                                                             
-----------------------------|------------------------------|
-----------------------------|------------------------------|
--5------------8-------------|--5---------------------------|
----------------------4------|-------------4/-5/-----8------|


                                                            
------------------------------|----------------------------|
------------------------------|----------------------------|
--5------8/-----12~-----------|--5------------8------------|
------------------------------|----------------------------|


                                                           
-----------------------------|----------------------------|
-----------------------------|----------------------------|
--5--------------------------|--5------------8------------|
---------------5/-----8------|----------------------------|


                                                                              
-----------------------------|----------------|------------------------------|
-----------------------------|----------------|------------------------------|
--5--------------------------|--5/-----8------|------------------------------|
---------------5/-----8------|----------------|--0-2-----------0-2-----------|


                                                            
------------------------------|----------------------------|
------------------------------|----------------------------|
------------------------------|--5------------8------------|
--0-2-----------0-2-----------|----------------------------|


                                                           
-----------------------------|----------------------------|
-----------------------------|----------------------------|
--5--------------------------|--5------------8------------|
---------------5/-----8------|----------------------------|


                                                                                
-----------------------------|----------------|--------------------------------|
-----------------------------|----------------|--------------------------------|
--5--------------------------|--5/-----8------|--------------------------0-----|
---------------5/-----8------|----------------|--0-2-----------0-2----------2--|


                                                                               
--------------------------------|---------------------------------------------|
--------------------------------|---------------------------------------------|
--------------------------0-----|---------------------------------0-2-2-2-2-0-|
--0-2-----------0-2----------2--|--0-2-2-2-2-2-2------0-2-2-2-2-2-------------|


                                              
---------------------------------------------|
---------------------------------------------|
---------------------------------0-2-2-2-2-0-|
--0-2-2-2-2-2-2------0-2-2-2-2-2-------------|


                                                                                
---------------------------------------------|---------------------------------|
---------------------------------------------|---------------------------------|
---------------------------------0-2-2-2-2-0-|--0-2-2-2-2-0-0-2-2-2-2-0--------|
--0-2-2-2-2-2-2------0-2-2-2-2-2-------------|--------------------------5/-----|


                                                           
----------------------------|-----------------------------|
----------------------------|-----------------------------|
--5------------8------------|--5--------------------------|
----------------------------|---------------5/-----8------|


                                                                            
----------------------------|-----------------------------|----------------|
----------------------------|-----------------------------|----------------|
--5------------8------------|--5--------------------------|--5/-----8------|
----------------------------|---------------5/-----8------|----------------|


                                                           
----------------------------|-----------------------------|
----------------------------|-----------------------------|
--5------------8------------|--5--------------------------|
----------------------------|---------------5/-----8------|


                                                                            
----------------------------|-----------------------------|----------------|
----------------------------|-----------------------------|----------------|
--5------------8------------|--5--------------------------|--5/-----8------|
----------------------------|---------------5/-----8------|----------------|


                                                                  
--------------------------------|--------------------------------|
--------------------------------|--------------------------------|
--------------------------0-----|--------------------------0-----|
--0-2-----------0-2----------2--|--0-2-----------0-2----------2--|


                                              
---------------------------------------------|
---------------------------------------------|
---------------------------------0-2-2-2-2-0-|
--0-2-2-2-2-2-2------0-2-2-2-2-2-------------|


                                              
---------------------------------------------|
---------------------------------------------|
---------------------------------0-2-2-2-2-0-|
--0-2-2-2-2-2-2------0-2-2-2-2-2-------------|


                                                                                
---------------------------------------------|---------------------------------|
---------------------------------------------|---------------------------------|
---------------------------------0-2-2-2-2-0-|--0-2-2-2-2-0-0-2-2-2-2-0--------|
--0-2-2-2-2-2-2------0-2-2-2-2-2-------------|--------------------------5/-----|


                                                                           
------------------------|------------------------|------------------------|
--5---------------------|--5---------------------|--5---------------------|
------------------------|------------------------|------------------------|
-------0--0----0--0--0--|-------0--0----0--0--0--|-------0--0----0--0--0--|


                                                                             
--------------------------|------------------------|------------------------|
--5--4--5--7--5--4-----4--|--5---------------------|--5---------------------|
--------------------7-----|------------------------|------------------------|
--------------------------|-------0--0----0--0--0--|-------0--0----0--0--0--|


                                                                       
------------------------|--------------------|------------------------|
--5---------------------|--------------------|--5---------------------|
------------------------|--------------------|------------------------|
-------0--0----0--0--0--|--8--------7--------|-------0--0----0--0--0--|


                                                                             
------------------------|------------------------|--------------------------|
--5---------------------|--5---------------------|--5--4--5--7--5--4-----4--|
------------------------|------------------------|--------------------7-----|
-------0--0----0--0--0--|-------0--0----0--0--0--|--------------------------|


                                                                           
------------------------|------------------------|------------------------|
--5---------------------|--5---------------------|--5---------------------|
------------------------|------------------------|------------------------|
-------0--0----0--0--0--|-------0--0----0--0--0--|-------0--0----0--0--0--|


                                                                       
--------------------|--------------------||---------------------------|
--------------------|--------------------||*--------------------------|
--------------------|--------------------||*--5-----------------------|
--8------7----------|--6------5----------||------2--2--2--2--2--2--2--|


                                                      
--------------------------|--------------------------|
--------------------------|--------------------------|
--4-----------------------|--3-----------------------|
-----2--2--2--2--2--2--2--|-----2--2--2--2--2--2--2--|


                                                      
--------------------------|--------------------------|
--------------------------|--------------------------|
--2--3--2--0--2--3--2--0--|--5-----------------------|
--------------------------|-----2--2--2--2--2--2--2--|


                                                                             
--------------------------|--------------------------|---------------------||
--------------------------|--------------------------|--------------------*||
--4-----------------------|--3-----------------------|--------------------*||
-----2--2--2--2--2--2--2--|-----2--2--2--2--2--2--2--|--0/-------7~--------||


                                                                             
----------------------|--------------------------|--------------------------|
----------------------|--------------------------|--------------------------|
----------------------|--2-----------------------|--2-----------------------|
--12--------19/-------|-----0--0--0--0--0--0--0--|-----0--0--0--0--0--0--0--|


                                                      
--------------------------|--------------------------|
--------------------------|--------------------------|
--2-----------------------|--2--1--2--4--2--1-----1--|
-----0--0--0--0--0--0--0--|--------------------4-----|


                                                      
--------------------------|--------------------------|
--------------------------|--------------------------|
--2-----------------------|--2-----------------------|
-----0--0--0--0--0--0--0--|-----0--0--0--0--0--0--0--|


                                                                             
--------------------------|----------------------|--------------------------|
--------------------------|----------------------|--------------------------|
--2-----------------------|----------------------|--2-----------------------|
-----0--0--0--0--0--0--0--|--12--------11~-------|-----0--0--0--0--0--0--0--|


                                                      
--------------------------|--------------------------|
--------------------------|--------------------------|
--2-----------------------|--2-----------------------|
-----0--0--0--0--0--0--0--|-----0--0--0--0--0--0--0--|


                                                      
--------------------------|--------------------------|
--------------------------|--------------------------|
--2--1--2--4--2--1-----1--|--2-----------------------|
--------------------4-----|-----0--0--0--0--0--0--0--|


                                                                             
--------------------------|--------------------------|----------------------|
--------------------------|--------------------------|----------------------|
--2-----------------------|--2-----------------------|----------------------|
-----0--0--0--0--0--0--0--|-----0--0--0--0--0--0--0--|--12------11----------|


                                                                              
---------------------||---------------------------|--------------------------|
---------------------||*--------------------------|--------------------------|
---------------------||*--5-----------------------|--4-----------------------|
--10------9----------||------2--2--2--2--2--2--2--|-----2--2--2--2--2--2--2--|


                                                      
--------------------------|--------------------------|
--------------------------|--------------------------|
--3-----------------------|--2--3--2--0--2--3--2--0--|
-----2--2--2--2--2--2--2--|--------------------------|


                                                      
--------------------------|--------------------------|
--------------------------|--------------------------|
--5-----------------------|--4-----------------------|
-----2--2--2--2--2--2--2--|-----2--2--2--2--2--2--2--|


                                                        
--------------------------|---------------------------||
--------------------------|--------------------------*||
--3-----------------------|--------------------------*||
-----2--2--2--2--2--2--2--|--0--0--0--0--7--7--7--7---||


                                                              
----------------------------------|--------------------------|
----------------------------------|--------------------------|
----------------------------------|--2-----------------------|
--12--12--12--12--17--17--17--17--|-----0--0--0--0--0--0--0--|


                                                      
--------------------------|--------------------------|
--------------------------|--------------------------|
--2-----------------------|--2-----------------------|
-----0--0--0--0--0--0--0--|-----0--0--0--0--0--0--0--|


                                                      
--------------------------|--------------------------|
--------------------------|--------------------------|
--2--1--2--4--2--1-----1--|--2-----------------------|
--------------------4-----|-----0--0--0--0--0--0--0--|


                                                      
--------------------------|--------------------------|
--------------------------|--------------------------|
--2-----------------------|--2-----------------------|
-----0--0--0--0--0--0--0--|-----0--0--0--0--0--0--0--|


                                                              
----------------------------------|--------------------------|
----------------------------------|--------------------------|
----------------------------------|--2-----------------------|
--12--12--12--12--11--11--11--11--|-----0--0--0--0--0--0--0--|


                                                      
--------------------------|--------------------------|
--------------------------|--------------------------|
--2-----------------------|--2-----------------------|
-----0--0--0--0--0--0--0--|-----0--0--0--0--0--0--0--|


                                                      
--------------------------|--------------------------|
--------------------------|--------------------------|
--2--1--2--4--2--1-----1--|--2-----------------------|
--------------------4-----|-----0--0--0--0--0--0--0--|


                                                                             
--------------------------|--------------------------|----------------------|
--------------------------|--------------------------|----------------------|
--2-----------------------|--2-----------------------|----------------------|
-----0--0--0--0--0--0--0--|-----0--0--0--0--0--0--0--|--12------11----------|


                                                                    
---------------------|---------------------------------------------|
---------------------|---------------------------------------------|
---------------------|---------------------------------0-2-2-2-2-0-|
--10------9----------|--0-2-2-2-2-2-2------0-2-2-2-2-2-------------|


                                              
---------------------------------------------|
---------------------------------------------|
---------------------------------0-2-2-2-2-0-|
--0-2-2-2-2-2-2------0-2-2-2-2-2-------------|


                                                                                
---------------------------------------------|---------------------------------|
---------------------------------------------|---------------------------------|
---------------------------------0-2-2-2-2-0-|--0-2-2-2-2-0-0-2-2-2-2-0--------|
--0-2-2-2-2-2-2------0-2-2-2-2-2-------------|--------------------------5/-----|


                                                           
----------------------------|-----------------------------|
----------------------------|-----------------------------|
--5------------8------------|--5------------0------3------|
----------------------------|-----------------------------|


                                                             
-----------------------------|------------------------------|
-----------------------------|------------------------------|
--5------------8-------------|--5---------------------------|
----------------------4------|-------------4/-5/-----8------|


                                
------------------------------||
------------------------------||
--5------8/-----12~-----------||
------------------------------||





Comments


Popular King Diamond tabs & chords
No Presents For Christmas Bass Tabs
Bye Bye Missy Tabs
Haunted 1 Tabs
Moving On Tabs
No Presents For Christmas Tabs
Salem Tabs
Sleepless Nights Tabs
The Cellar Tabs
The Uninvited Guest 1 Tabs
Victimized 1 Tabs


Song lyrics



↑ Back to top | Tablatures and chords are parodies/interpretations of the original songs. You may use it for private study, scholarship, research or language learning purposes only
© 2014 AZChords.com Contact us | Privacy policy | DMCA | Add/correct tabs | Request tabs | Top 50 tabs