» » »

Give Me Your Soul Bass tabs (ver.1)

Artists:  A B C D E F G H I J K L M N O P Q R S T U V W X Y Z # 

Give Me Your Soul Bass tabs (ver.1)

King Diamond
Rating:
3/5 (1 vote)

Hard to play? Try these video lessons and learn fast.
                Intro
---------------------------------------------------------------------|  x3
---------------------------------------------------------------------|
-55555555555555555555555555555555------------------------------------|
----------------------------------66666666666666666666666666666666---|

Verse
-------------------------------------------------------------------------|  x2
-------------------------------------------------------------------------|
---------------------------32-53-----------------------------------------|
-22-222-2225-225--22-222-2--------22-222-2225-225--7--3------------------|

Pre-Chorus
----------------------------------------------------------------------|  x2
----------------------------------------------------------------------|
----------------------------------------------------------------------|
-5555----6555----8555----5-6-8--5555----6555----8555---5-6-8-10-8-6---|

Chorus
-------------------------------------------------------------------------|   x1
-------------------------------------------------------------------------|
-------------------------------------------------------------------------|
-2-2-2-0---2-2-2-0---2-2-2-0--7--3--4-4-4-2---4-4-4-2---4-4-4-2--9--5----|

Intro x3

Verse  x2

Guitar Solo
----------------------------------------------------------------------|
----------------------------------------------------------------------|
----------------------------------------------------------------------|
-2-2-2---2-2-2---2-2-2---7--3---2-2-2-0---2-2-2-0--2-2-2-0--7--3------|

-----------------------------------------------------------------------|
-----------------------------------------------------------------------|
-----------------------------------------------------------------------|
-4-4-4-2--4-4-4-2--4-4-4-2--9--5--4-4-4-2--4-4-4-2--4-4-4-2---9--5-----|

Intro   x3

Verse   x2

Guitar Solo #2
----------------------------------------------------------------------|  x2
----------------------------------------------------------------------|
----------------------------------------------------------------------|
-5555----6555----8555----5-6-8--5555----6555----8555---5-6-8-10-8-6---|

Chorus

Intro  x3

Outro
This is close to how its played, cant hear it enough to tell much about it so feel free 
make corrections.
--7--5--3-----------------3---------------------------------|   x5 and 1/2
-----------7--5--3--5--7-----7--5--3--7--5--3--5------------|
------------------------------------------------------------|
------------------------------------------------------------|
            
Hard to play? Try these video lessons and learn fast. | Correct




comments powered by Disqus
↑ Back to top | Tablatures and chords are parodies/interpretations of the original songs. You may use it for private study, scholarship, research or language learning purposes only