>
 >
Eye Of The Witch

Eye Of The Witch Guitar Tabs

King Diamond - Eye Of The Witch chords, tabs, tablatures, lyrics

Guitar lessons | Add/correct | Request | Top 50 tabs Artists:  A B C D E F G H I J K L M N O P Q R S T U V W X Y Z 0-9

Eye Of The Witch Guitar Tabs – King Diamond

CD, Sheet music, Poster

Do you like Eye Of The Witch? Share with your friends now
Bass TabsTabs
King Diamond:  Eye Of The Witch






Tuning: Standard

This lead is played during riffs 1 and 2.

Harpischord (arranged for guitar)
e|-10---------------------------|
B|----10-11--8-10---------------|
G|----------------10-12--10-9-7-|
D|------------------------------|
A|------------------------------|
E|------------------------------|

e|-10-------------------------------|
B|----10h11-10h11-8h10-8h10---------|
G|--------------------------10----7-|
D|-----------------------------10---|
A|----------------------------------|
E|----------------------------------|


Riff 1
e|-----------------------|
B|-----------------------|
G|-----------------------|
D|-7-----7-----7-7-----7-|
A|-5-----5-----5-5-----5-|
E|-----------------------|


Riff 2
e|---------------------------------------------|
B|---------------------------------------------|
G|---------------------------------------------|
D|-7-7-7-7-7-7-7-7\5-5--7-7-7-7-7-7-7\5-5-7--7-|
A|-5-5-5-5-5-5-5-5\3-3--5-5-5-5-5-5-5\3-3-5--5-|
E|---------------------------------------------|
   * * * * * * *        * * * * * * 
e|-----------------------------------------|
B|-----------------------------------------|
G|-----------------------------------------|
D|-7-7-7-7-7-7\5-5--7-7-7-7-7-7-7\5-5-7--7-|
A|-5-5-5-5-5-5\3-3--5-5-5-5-5-5-5\3-3-5--5-|
E|-----------------------------------------|
   * * * * *        * * * * * * 
e|------------------------------------|
B|------------------------------------|
G|------------------------------------|
D|-7-7-7-7-7-7\5-5--7-7-7-7-7-7-7\5-5-|
A|-5-5-5-5-5-5\3-3--5-5-5-5-5-5-5\3-3-|
E|------------------------------------|
   * * * * *        * * * * * * 


Riff 3
e|------------------------------------------------|
B|------------------------------------------------|
G|------------------------------------------------|
D|-7--7--7-10/12-12-12-12\10--7--7--7-7/8-8-8-8\5-|
A|-5--5--5--8/10-10-10-10\-8--5--5--5-5/6-6-6-6\3-|
E|------------------------------------------------|
  "It's so cold inside..."


Riff 4
e|--------------------------------------|
B|--------------------------------------|
G|--------------------------------------|
D|-9--------9--------7--------5----7----|
A|-7--------6--------5--------3----5----|
E|--------------------------------------|
  "It's the eye of the witch..."
e|------------------------------------|
B|------------------------------------|
G|------------------------------------|
D|-9--------9--------7--------5----4--|
A|-7--------6--------5--------3----2--|
E|------------------------------------|
  "It's the eye of the witch..."


Riff 2a
e|-------------------------------------------|
B|-------------------------------------------|
G|-------------------------------------------|
D|-7-7-7-7-7-7-7\5-5--7-7-7-7-7-7-7\5-5-7--7-|
A|-5-5-5-5-5-5-5\3-3--5-5-5-5-5-5-5\3-3-5--5-|
E|-------------------------------------------|
   * * * * * *        * * * * * * 
e|-----------------------------------------|
B|-----------------------------------------|
G|-----------------------------------------|
D|-7-7-7-7-7-7\5-5--7-7-7-7-7-7-7\5-5-7--7-|
A|-5-5-5-5-5-5\3-3--5-5-5-5-5-5-5\3-3-5--5-|
E|-----------------------------------------|
   * * * * *        * * * * * * 
e|------------------------------------|
B|------------------------------------|
G|------------------------------------|
D|-7-7-7-7-7-7\5-5--7-7-7-7-7-7-7\5-5-|
A|-5-5-5-5-5-5\3-3--5-5-5-5-5-5-5\3-3-|
E|------------------------------------|
   * * * * *        * * * * * * 


Riff 3a
e|-------------------------------|
B|-------------------------------|
G|-------------------------------|
D|-7-----7-----10/12-12-12-12\10-|
A|-5-5-5-5-5-5--8/10-10-10-10\-8-|
E|-------------------------------|
     * *   * * 
  "Thunder bring the rain..."
e|-------------------------|
B|-------------------------|
G|-------------------------|
D|-7-----7-----7/8-8-8-8\5-|
A|-5-5-5-5-5-5-5/6-6-6-6\3-|
E|-------------------------|
     * *   * * 
  "Penetrate my brain..."

Play Riff 4   "It's the eye of the witch..."
Play Riff 2a  "...the eye...."

Riff 5  (solo rhythm)
e|--------------------------------------------------|
B|--------------------------------------------------|
G|--------------------------------------------------|
D|-7-7-7-7-7----10-10-10-10--7-7-7-7-7----12--12-10-|
A|-5-5-5-5-5-----8-\7--8-\7--5-5-5-5-5----10--10--8-|
E|--------------------------------------------------|

e|-----------------------------------|
B|-----------------------------------|
G|---------------------------------5-|
D|-7-7-7-7-7----10-10-10-10--7-----5-|
A|-5-5-5-5-5-----8-\7--8-\7--5--7--3-|
E|------------------------------5----|


Riff 6  (solo rhythm)
e|--------------------------------|
B|--------------------------------|
G|--------------------------------|
D|-9-9---------------12---12---12-|
A|-7-7---------------10----9---10-|
E|-0-0-0-0-0-0-0-0-0----0----0----|
       * * * * * * *    *    * 
e|--------------------------------|
B|--------------------------------|
G|--------------------------------|
D|-9-9---------------14---14---12-|
A|-7-7---------------12---12---10-|
E|-0-0-0-0-0-0-0-0-0----0----0----|
       * * * * * * *    *    *
e|--------------------------------------------|
B|--------------------------------------------|
G|--------------------------------------------|
D|-9-9---------------12---12---12-------------|
A|-7-7---------------10----9---10----9-8-7--8-|
E|-0-0-0-0-0-0-0-0-0----0----0-----0-7-6-5--6-|
       * * * * * * *    *    * 

Play Riff 3   "Another glass of wine..."
Play Riff 4   "It's the eye of the witch..."

Riff 2b
e|-------------------------------------------|
B|-------------------------------------------|
G|-------------------------------------------|
D|-7-7-7-7-7-7-7\5-5--7-7-7-7-7-7-7\5-5-7--7-|
A|-5-5-5-5-5-5-5\3-3--5-5-5-5-5-5-5\3-3-5--5-|
E|-------------------------------------------|
   * * * * * *        * * * * * * 
                                          x4
e|-----------------------------------------|
B|-----------------------------------------|
G|-----------------------------------------|
D|-7-7-7-7-7-7\5-5--7-7-7-7-7-7-7\5-5-7--7-|
A|-5-5-5-5-5-5\3-3--5-5-5-5-5-5-5\3-3-5--5-|
E|-----------------------------------------|
   * * * * *        * * * * * * 
e|---------------------------------------|
B|---------------------------------------|
G|---------------------------------------|
D|-7-7-7-7-7-7\5-5--7-7-7-7-7-7-7\5-5-7--|
A|-5-5-5-5-5-5\3-3--5-5-5-5-5-5-5\3-3-5--|
E|---------------------------------------|
   * * * * *        * * * * * * 



notation:
^   =  bend [ ^ = half, ^^ = whole, etc. ]
^r  =  bend and release
x   =  mute with fret-hand
*   =  mute with palm-hand
X\\ =  pick slide
h   =  hammer-on
p   =  pull-off
~   =  vibrato
t   =  tap-on
/   =  slide up
\   =  slide down
h.  =  harmonics
ah  =  artificial harmonic
(9) =  ghost note
tm  =  trem picking
tr  =  trill





Comments


Popular King Diamond tabs & chords
Abigail Bass Tabs
House Of God Bass Tabs
1642 Imprisonment Tabs
Amon" Belongs To "Them Tabs
Emerencia Tabs
Mansion In Sorrow 1 Tabs
Mirror Mirror Tabs
Spirits Tabs
The Meetings Tabs
The Wheelchair 1 Tabs


Song lyrics



↑ Back to top | Tablatures and chords are parodies/interpretations of the original songs. You may use it for private study, scholarship, research or language learning purposes only
© 2014 AZChords.com Contact us | Privacy policy | DMCA | Add/correct tabs | Request tabs | Top 50 tabs