>
 >
Eastmann's Cure

Eastmann's Cure Bass Tabs

King Diamond - Eastmann's Cure chords, tabs, tablatures, lyrics

Guitar lessons | Add/correct | Request | Top 50 tabs Artists:  A B C D E F G H I J K L M N O P Q R S T U V W X Y Z 0-9

Eastmann's Cure Bass Tabs – King Diamond

CD, Sheet music, Poster

Do you like Eastmann's Cure? Share with your friends now
Bass TabsTabs
G||--------------------|-------------------|--------------------|
D||--------------------|-------------------|--------------------|
A||--7--7--------------|--7----------------|--------------------|
E||--------------------|-------------------|--8--8--------------|

-------------------|---------------------------------|
-------------------|---------------------------------|
--5----------------|--7--7-7-7-7-7-7-7-7-7-7-7-7-7-7-|
-------------------|---------------------------------|

-----------------------------|---------------------------------|
-----------------------------|---------------------------------|
-----------------7--5--------|--7--7-7-7-7-7-7-7-7-7-7-7-7-7-7-|
--8--8-8-8-8-8-8-------8--7--|---------------------------------|
                                                                 
-----------------------------||---------------------------------|
-----------------------------||*--------------------------------|
-----------------7--5--------||*--7--------------8--------------|
--8--8-8-8-8-8-8-------8--7--||------0-0-0-0-0-0----0-0-0-0-0-0-|

---------------------------|--------------------------------|
---------------------------|--------------------------------|
--7--------------8----5----|--7--------------8--------------|
-----0-0-0-0-0-0-----------|-----0-0-0-0-0-0----0-0-0-0-0-0-|
                                                             
---------------------------|--------------------------------|
---------------------------|--7--------------8--------------|
--7--------------8----5----|-----0-0-0-0-0-0----0-0-0-0-0-0-|
-----0-0-0-0-0-0-----------|--------------------------------|

---------------------------|--------------------------------|
--7--------------8----5----|--------------------------------|
-----0-0-0-0-0-0-----------|--7--------------8--------------|
---------------------------|-----0-0-0-0-0-0----0-0-0-0-0-0-|
                                                                      
---------------------------|--------------------|--------------------|
---------------------------|--------------------|--------------------|
--7--------------8----5----|--------------------|--------------------|
-----0-0-0-0-0-0-----------|--0--------------3--|--3--------------0--|

--------------------|--------------------|--------------------|
--------------------|--------------------|--------------------|
--------------------|--------------------|--------------------|
--0--------------3--|--3--------------0--|--0--------------3--|
                                                                 
--------------------|--------------------|---------------------||
--------------------|--------------------|--------------------*||
--------------------|--------------------|--------------------*||
--3--------------0--|--0--------------3--|--3--------5---------||

--------------------|-------------------|--------------------|
--------------------|-------------------|--------------------|
--------------------|-------------------|--------------------|
--6--6--------------|--5----------------|--0--0--------------|
                                                             
-------------------|--------------------|-------------------|
-------------------|--------------------|-------------------|
-------------------|--------------------|-------------------|
--0----------------|--0--0--------------|--0----------------|

                                     3x                                         
|------------------------------------||--------------------|-------------------|
|*----------------------------------*||--------------------|-------------------|
|*----------------------------------*||--------------------|-------------------|
|---5-5-5-5-5-5-5-5-5-5-5-5-5-5-5-5--||--0--0--------------|--0----------------|
                                                                              3x
--------------------|-------------------||------------------------------------||
--------------------|-------------------||*----------------------------------*||
--------------------|-------------------||*----------------------------------*||
--0--0--------------|--0----------------||---5-5-5-5-5-5-5-5-5-5-5-5-5-5-5-5--||

--------------------|-------------------|--------------------|
--------------------|-------------------|--------------------|
--------------------|-------------------|--------------------|
--0--0--------------|--0----------------|--0--0--------------|
                                                            
-------------------|--------------------|-------------------|
-------------------|--------------------|-------------------|
-------------------|--------------------|-------------------|
--0----------------|--6--6--------------|--5----------------|

|---------------------------|---------------------|--------------------------|
|*--7----7---5---4-5-4------|---------------------|--7----7---5---4-5-4------|
|*---------------------5-3--|------5------7---5---|---------------------5-3--|
|---------------------------|---------------------|--------------------------|
                                                                       
---------------------|--------------------------|---------------------|
---------------------|--7----7---5---4-5-4------|---------------------|
------5------7---5---|---------------------5-3--|------5------7---5---|
---------------------|--------------------------|---------------------|
                                                                           
--------------------------|---------------------|-------------------------|
--7----7---5---4-5-4------|---------------------|-------------------------|
---------------------5-3--|------5------7---5---|-------------------------|
--------------------------|---------------------|--0--0--2--3----0--2--3--|
                                                                              
----------------------0--|-------------------------|-------------------------|
-------------------1-----|-------------------------|-------------------------|
--------2--3----2--------|-------------------------|--------2--3----2--0-----|
--5--5-------------------|--0--0--2--3----0--2--3--|--5--5----------------3--|
                                                                              
-------------------------|----------------------0--|-------------------------|
-------------------------|-------------------1-----|-------------------------|
-------------------------|--------2--3----2--------|-------------------------|
--0--0--2--3----0--2--3--|--5--5-------------------|--0--0--2--3----0--2--3--|

--------------------------||-------------------|------------------------------|
-------------------------*||-------------------|------------------------------|
--------2--3----2--0-----*||--3----------------|--7----------8--7----------5--|
--5--5----------------3---||-------------------|-----0-0-0-0-------0-0-0-0----|
                                                           
----------------------------|-----------------------------|
----------------------------|------------------8---7---5--|
--7--------------8----10----|------------------6---5---3--|
-----0-0-0-0-0-0------------|--5-5-5-5-5-5-5-5------------|
                                                            
-----------------------------|-----------------------------|
-----------------------------|------------------8---7---5--|
----------------------2---3--|------------------6---5---3--|
--5-5-5-5-5-5-5-5-2----------|--5-5-5-5-5-5-5-5------------|

-----------------------------|----------------------------------|
-----------------------------|----------------------------------|
----------------------2---3--|----------------------------------|
--5-5-5-5-5-5-5-5-2----------|--2-2-2-2-2-2-2-2-2-2-2-2-2-2-2-2-|
                                                                 
-----------------------------|----------------------------------|
-----------------------------|----------------------------------|
------------------3---3---3--|----------------------------------|
--2-2-2-2-2-2-2-2------------|--2-2-2-2-2-2-2-2-2-2-2-2-2-2-2-2-|
                                                            
-----------------------------|-----------------------------|
-----------------------------|------------------8---7---5--|
------------------3---2---3--|------------------6---5---3--|
--2-2-2-2-2-2-2-2------------|--5-5-5-5-5-5-5-5------------|
                                                            
-----------------------------|-----------------------------|
-----------------------------|------------------8---7---5--|
----------------------2---3--|------------------6---5---3--|
--5-5-5-5-5-5-5-5-2----------|--5-5-5-5-5-5-5-5------------|

-----------------------------|--------------------------------|
-----------------------------|--------------------------------|
----------------------2---3--|--7--------------8--------------|
--5-5-5-5-5-5-5-5-2----------|-----0-0-0-0-0-0----0-0-0-0-0-0-|
                                                             
---------------------------|--------------------------------|
---------------------------|--------------------------------|
--7--------------8----5----|--7--------------8--------------|
-----0-0-0-0-0-0-----------|-----0-0-0-0-0-0----0-0-0-0-0-0-|
                                                             
---------------------------|--------------------------------|
---------------------------|--7--------------8--------------|
--7--------------8----5----|-----0-0-0-0-0-0----0-0-0-0-0-0-|
-----0-0-0-0-0-0-----------|--------------------------------|
                                                             
---------------------------|--------------------------------|
--7--------------8----5----|--------------------------------|
-----0-0-0-0-0-0-----------|--7--------------8--------------|
---------------------------|-----0-0-0-0-0-0----0-0-0-0-0-0-|

---------------------------|--------------------|--------------------|
---------------------------|--------------------|--------------------|
--7--------------8----5----|--------------------|--------------------|
-----0-0-0-0-0-0-----------|--0--------------3--|--3--------------0--|
                                                              
--------------------|--------------------|--------------------|
--------------------|--------------------|--------------------|
--------------------|--------------------|--------------------|
--0--------------3--|--3--------------0--|--0--------------3--|
                                                               
--------------------|--------------------|--------------------|
--------------------|--------------------|--------------------|
--------------------|--------------------|--------------------|
--3--------------0--|--0--------------3--|--3--------5--------|
                     
-------------------||
-------------------||
-------------------||
--0----------------||





Comments


Popular King Diamond tabs & chords
Am I Evil Bass Tabs
Bye Bye Missy Tabs
Insanity 1 Tabs
Pictures In Red Tabs
Sleep Tight Little Baby Tabs
Something Weird Tabs
The Poltergeist Tabs
The Spider's Lullabye 1 Tabs
The Uninvited Guest 1 Tabs
The Wheelchair 1 Tabs


Song lyrics



↑ Back to top | Tablatures and chords are parodies/interpretations of the original songs. You may use it for private study, scholarship, research or language learning purposes only
© 2014 AZChords.com Contact us | Privacy policy | DMCA | Add/correct tabs | Request tabs | Top 50 tabs