» » »

King Diamond, Cremation Bass tabs (ver.1)

Artists:  A B C D E F G H I J K L M N O P Q R S T U V W X Y Z # 

Cremation Bass tabs (ver.1)

King Diamond Tabs
 Rating:
4.2/5 (5 votes)
Cremation lessons Tabs too difficult? Try these video lessons and learn fast
1
                -------------------------------------------------------------------------------
-------------------------------------------------------------------------------


Tuning: EADG

Tempo: 110-120

Riff 1
G|---------------------------------------------------------------------------|
D|---------------------------------------------------------------------------|
A|--------2----1----------2----1---------2----1---------2----1---------------|
E|---0---------------0--------------0--------------0-------------------------|

Riff 2
G|---------------------------------------------------------------------------|
D|---------------------------------------------------------------------------|
A|--------------------------------2222-1-1-1-1-1-1-1111-1-1-1-1-1-1----------|x4
E|---0-0-0-0-0-0-0000-0-0-0-0-0-0-----------------------------------1111-----|

Riff 3
G|---------------------------------------------------------------------------|
D|---------------------------------------------------------------------------|
A|----------------2----1--------------------2----1---------------------------|
E|--0-0----0-0--------------0--0----0--0-------------------------------------|

Riff 4                                                                      ->
G|---------------------------------------------------------------------------|
D|---------------------------------------------------------------------------|
A|-------------7h8-------------7h8-------------7h8-------------7h8-----------|
E|-000000000000----000000000000----000000000000----000000000000--------------|

->
G|---------------------------------------------------------------------------|
D|---------------------------------------------------------------------------|
A|-------------------------11111111------------------------------------------|x3
E|-111111111111111133333333--------------------------------------------------|

Riff 5
G|---------------------------------------------------------------------------|
D|---------------------------------------------------------------------------|
A|------------------------------2----1-------------------2----1--------------|
E|-0-0----0-0----0-0----0-0--------------0--0----0--0------------------------|

Riff 4 x 3

Ending
G|---------------------------------------------------------------------------|
D|---------------------------------------------------------------------------|
A|------------------2----1-------------------2----1---------------------1----|
E|---0-0----0-0---------------0-0-----0-0--------------0--0----0--0----------|
            
Submit corrections

comments powered by Disqus
↑ Back to top | King Diamond Bass for Cremation. Lyrics for acoustic guitar and electric guitar. 1 Tablatures and chords are parodies/interpretations of the original songs. You may use it for private study, scholarship, research or language learning purposes only