>
 >
Catacomb

Catacomb Bass Tabs

King Diamond - Catacomb chords, tabs, tablatures, lyrics

Guitar lessons | Add/correct | Request | Top 50 tabs Artists:  A B C D E F G H I J K L M N O P Q R S T U V W X Y Z 0-9

Catacomb Bass Tabs – King Diamond

CD, Sheet music, Poster

Do you like Catacomb? Share with your friends now
Bass Tabs
-------------------------------------------------------------------------------
-------------------------------------------------------------------------------


Tuning: Standard

"s" means slide out

0:00
G|---------------------------------------------------------------------------|
D|---------------------------------------------------7-6h7h6--6--------------|
A|-----6-7-8---5-7---3-5-2-------------6-7-8---5-7----------8---8-7-5--------|
E|-0-----------------------1---1---0-----------------------------------------|

G|---------------------------------------------------------------------------|
D|---------------------------------------------------7-6h7h6--6--------------|
A|-----6-7-8---5-7---3-5-2-------------6-7-8---5-7----------8---8-7-5--------|
E|-0-----------------------1---1---0-----------------------------------------|

0:17
G|---------------------------------------------------------------------------|
D|---------------------------------------------------------------------------|
A|--------------1-------------------------3---2-------5----------------------|
E|-0-------------------------0--------------------3--------------------------|

0:26
G|---------------------------------------------------------------------------|
D|-2-----2---------2-----2-----3---2-----2-----------------------------------|
A|-------------------------------------------------3-3-3-3-4-4-4-4-----------|
E|---0-0---0-0-2-3---0-0---0-0-------0-0---0-0-2-3---------------------------|

G|---------------------------------------------------------------------------|
D|-2-----2---------2-----2-----3---2-----2-----------------------------------|
A|-------------------------------------------------5-5-5-5-6-6-6-6-----------|
E|---0-0---0-0-2-3---0-0---0-0-------0-0---0-0-2-3---------------------------|

0:44
G|---------------------------------------------------------------------------|
D|---------------------------------------------------------------------------|
A|-------3-4-------------3-4-------------3-4-------------3-------------------|
E|-22222-----2-5-1-22222-----2-5---22222-----2-5-1-22222---3---4-------------|

G|---------------------------------------------------------------------------|
D|---------------------------------------------------------------------------|
A|-------6-7-------------6-7-------------6-7-------------6-------------------|
E|-55555-----5-8-4-55555-----5-8---55555-----5-8-4-55555---5---6-------------|

1:01 (Sixteenth notes all the way, spaces are for easier reading)
G|---------------------------------------------------------------------------|
D|---------------------------------------------------------------------------|
A|-77777777-55555555-33333333-22222222-----------------------7s--------10s---|
E|------------------------------------33333333-22222222-00000----00000-------|

G|---------------------------------------------------------------------------|
D|---------------------------------------------------------------------------|
A|-77777777-55555555-33333333-22222222-----------------22222222-22222222-----|
E|------------------------------------33333333-22222222----------------------|

G|---------------------------------------------------------------------------|
D|---------------------------------------------------------------------------|
A|-22222222-22222222-33333333-44444444-55555555-66666666---------------------|
E|-------------------------------------------------------0-------------------|

1:28
G|---------------------------------------------------------------------------|
D|---------------------------------------------------------------------------|
A|-7s------------------------------------------------------------5-----------|
E|---0-000-0-0-000-3-3-333-2-2-2-5-0-0-000-0-0-000-3-3-333-2-2-2-------------|

G|---------------------------------------------------------------------------|
D|---------------------------------------------------------------------------|
A|---------------------------------------------------------------5-----------|
E|-0-0-000-0-0-000-3-3-333-2-2-2-5-0-0-000-0-0-000-3-3-333-2-2-2-------------|

1:46
G|---------------------------------------------------------------------------|
D|---------------------------------------------------------------------------|
A|--------------1-------------------------3---2-------5----------------------|
E|-0-------------------------0--------------------3--------------------------|

1:55
G|---------------------------------------------------------------------------|
D|-2-----2---------2-----2-----3---2-----2-----------------------------------|
A|-------------------------------------------------3-3-3-3-4-4-4-4-----------|
E|---0-0---0-0-2-3---0-0---0-0-------0-0---0-0-2-3---------------------------|

G|---------------------------------------------------------------------------|
D|-2-----2---------2-----2-----3---2-----2-----------------------------------|
A|-------------------------------------------------5-5-5-5-6-6-6-6-----------|
E|---0-0---0-0-2-3---0-0---0-0-------0-0---0-0-2-3---------------------------|

2:12
G|---------------------------------------------------------------------------|
D|---------------------------------------------------------------------------|
A|-------3-4-------------3-4-------------3-4-------------3-------------------|
E|-22222-----2-5-1-22222-----2-5---22222-----2-5-1-22222---3---4-------------|

G|---------------------------------------------------------------------------|
D|---------------------------------------------------------------------------|
A|-------6-7-------------6-7-------------6-7-------------6-------------------|
E|-55555-----5-8-4-55555-----5-8---55555-----5-8-4-55555---5---6-------------|

2:29 (Sixteenth notes all the way, spaces are for easier reading)
G|---------------------------------------------------------------------------|
D|---------------------------------------------------------------------------|
A|-77777777-55555555-33333333-22222222-----------------------7s--------10s---|
E|------------------------------------33333333-22222222-00000-----00000------|

G|---------------------------------------------------------------------------|
D|---------------------------------------------------------------------------|
A|-77777777-55555555-33333333-22222222-----------------22222222-22222222-----|
E|------------------------------------33333333-22222222----------------------|

G|---------------------------------------------------------------------------|
D|---------------------------------------------------------------------------|
A|-22222222-22222222-33333333-44444444-55555555-66666666---------------------|
E|------------------------------------------------------0--------------------|

2:55 (11 and 10, not 1 1 and 1 0)
G|---------------------------------------------------------------------------|
D|-3s--6s--2s--5s--3s--6s-----------------3-5-------3--------3-5-------------|
A|---00--00--00--00--00--00----0-2-3-3h5h6----6-5-2---3-3h5h6----6-5-2-------|
E|-------------------------2-3-----------------------------------------------|

G|---------------------------------------------------------------------------|
D|-3s--6s--2s--5s--3s--6s-----------------3-5-------3--------3-5-2---3-------|
A|---00--00--00--00--00--00----0-2-3-3h5h6----6-5-2---3-3h5h6----------------|
E|-------------------------2-3-----------------------------------------------|

3:12
G|---------------------------------------------------------------------------|
D|---------------------------------------------------------------------------|
A|-0----------------1---1---0------------------------------------------------|
E|---------------------------------------------------------------------------|

3:21 (Sixteenth notes all the way, spaces are for easier reading)
G|---------------------------------------------------------------------------|
D|---------------------------------------------------------------------------|
A|---------------------------------------------------------------------------|
E|-4444444444444444-4444444444444444-4444444444444444-4444444444444444-------|

G|---------------------------------------------------------------------------|
D|---------------------------------------------------------------------------|
A|---------------------------------------------------------------------------|
E|-6666666666666666-6666666666666666-6666666666666666-6666666666666666-------|

3:39 (Sixteenth notes all the way, spaces are for easier reading)
G|---------------------------------------------------------------------------|
D|---------------------------------------------------------------------------|
A|-77777777-55555555-33333333-22222222-----------------------7s-------10s----|
E|------------------------------------33333333-22222222-00000----00000-------|

G|---------------------------------------------------------------------------|
D|---------------------------------------------------------------------------|
A|-77777777-55555555-33333333-22222222-----------------22222222-22222222-----|
E|------------------------------------33333333-22222222----------------------|

G|---------------------------------------------------------------------------|
D|---------------------------------------------------------------------------|
A|-22222222-22222222-33333333-44444444-55555555-66666666---------------------|
E|------------------------------------------------------0--------------------|

4:05
G|---------------------------------------------------------------------------|
D|---------------------------------------------------------------------------|
A|-7s------------------------------------------------------------5-----------|
E|---0-000-0-0-000-3-3-333-2-2-2-5-0-0-000-0-0-000-3-3-333-2-2-2-------------|

G|---------------------------------------------------------------------------|
D|---------------------------------------------------------------------------|
A|---------------------------------------------------------------5-----------|
E|-0-0-000-0-0-000-3-3-333-2-2-2-5-0-0-000-0-0-000-3-3-333-2-2-2-------------|

4:22 (Sixteenth notes all the way, spaces are for easier reading)
G|---------------------------------------------------------------------------|
D|---------------------------------------------------------------------------|
A|-77777777-55555555-33333333-22222222-----------------------7s-------10s----|
E|------------------------------------33333333-22222222-00000----00000-------|

G|---------------------------------------------------------------------------|
D|---------------------------------------------------------------------------|
A|-77777777-55555555-33333333-22222222-----------------22222222-22222222-----|
E|------------------------------------33333333-22222222----------------------|

G|---------------------------------------------------------------------------|
D|---------------------------------------------------------------------------|
A|-22222222-22222222-33333333-44444444-55555555-66666666---------------------|
E|------------------------------------------------------0--------------------|

===============================================================================





Comments


Popular King Diamond tabs & chords
Abigail Bass Tabs
The Lake Bass Tabs
This Place Is Terrible 2 Bass Tabs
''LOA'' House Tabs
Blood To Walk Tabs
Charon 1 Tabs
Dressed In White Tabs
Little One Tabs
The Lake Tabs
Trick Or Treat Lead Tabs


Song lyrics



↑ Back to top | Tablatures and chords are parodies/interpretations of the original songs. You may use it for private study, scholarship, research or language learning purposes only
© 2014 AZChords.com Contact us | Privacy policy | DMCA | Add/correct tabs | Request tabs | Top 50 tabs