» » »

King Diamond, Am I Evil Bass tabs (ver.1)

Artists:  A B C D E F G H I J K L M N O P Q R S T U V W X Y Z # 

Am I Evil Bass tabs (ver.1)

King Diamond Tabs
Rating:
0/5 (0 votes)
Am I Evil lessons Tabs too difficult? Try these video lessons and learn fast
                G-------------
D-------------
A-7-5-7-8-10-7
E-------------

G----------------------
D----------------------
A-7777-7777-777-7777777
E----------------------

G---------------10-9-10-10H12
D-----------9-8-------------
A-7-----8-7-----------------
E---7-6---------------------

Verse 1

G-----------------------
D-----------------------
A-----------------------
E-0000-3P0-0-5P0-000-6-5

Verse 2

G----------------------
D------------2------3-2
A-2222-5P2-2---2222----
E----------------------

3:58
G------
D------
A-7-5-3
E------

G-----------------------
D-----------------------
A-----------------------
E-0000-3P0-0-5P0-000-6-5

G----------------------------
D----------------------------
A-7-5-3--7-5-3--7-5-3--7-9-10
E----------------------------

Verse 3

G----------------------------------------
D----------------------------------------
A-------------------5-----------------3--
E-5-5555-5555-555-3---5-5555-5555-555---3

Verse 4

G----------------------------------------
D----------------------------------------
A-7-7777-7777-7777-5-7-7777-7777-7777-5-5
E----------------------------------------

GT SOLO 

G------------------------------------------------------
D------------------------------------------------------
A----------------------------7-7777-7777-7777-7777-7777
E-7-7777-7777-7777-7777-7777---------------------------


PLAY ONE MEASURE EACH
G-----------------------
D-----------------------
A-------8-8----9999-----
E-55555-----666-----7777

G--------------------
D--------------------
A-7777-7777-7777-7777
E--------------------

G----------
D----------
A----------
E-7777-5555

G-------------------7-9P7--
D---------------7-9-------9
A-7-5-7777-7777------------
E-------------------------- X3

G-----------------------
D-----------------------
A-----------------------
E-0000-3P0-0-5P0-000-6-5 X4
            

comments powered by Disqus
↑ Back to top | King Diamond Bass for Am I Evil. Lyrics for acoustic guitar and electric guitar. Tablatures and chords are parodies/interpretations of the original songs. You may use it for private study, scholarship, research or language learning purposes only