>
 >
Abigail

Abigail Bass Tabs

King Diamond - Abigail chords, tabs, tablatures, lyrics

Guitar lessons | Add/correct | Request | Top 50 tabs Artists:  A B C D E F G H I J K L M N O P Q R S T U V W X Y Z 0-9

Abigail Bass Tabs – King Diamond

CD, Sheet music, Poster

Do you like Abigail? Share with your friends now
Bass TabsTabsTabs v2
-------------------------------------------------------------------------------
-------------------------------------------------------------------------------

Tuning: Standard

This song can be really tricky in some parts, must be careful when listening
to the rhythm.

0:00
G|---------------------------------------------------------------------------|
D|-------------------------------------------------------3--2----------------|
A|-----------------------------7-------------------0--3--------5--3----------|
E|-0-------------1-0---------------0-----------------------------------------|

G|---------------------------------------------------------------------------|
D|-------------------------------------------------------3--2----------------|
A|-----------------------------7-------------------0--3--------5--3----------|
E|-0-------------1-0---------------0-----------------------------------------|

G|---------------------------------------------------------------------------|
D|---------------------------------------------------------------------------|
A|-----------------3---------------------------------------------------------|
E|-1-------------------------------------------------------------------------|

0:16
G|---------------------------------------------------------------------------|
D|---------------------------------------------------------------------------|
A|-----7-8-7---------8-7-6-7-6---------7-8-7-----10-----10-8-10-8s7----------|
E|-0-0---------0-0-------------8-0---0---------0--------------------0--------|

G|-----------------------------------------------12----12-10-12-10s9---------|
D|---------------------------------------------------------------------------|
A|-----7-8-7---------8-7-6-7-6---------7-8-7---------------------------------|
E|---0---------0-0-------------8-0---0---------0---------------------0-------|

G|---------------------------------------------------------------------------|
D|---------------------------------------------------------------------------|
A|-----7-8-7---------8-7-6-7-6---------7-8-7-----10-----10-8-10-8------------|
E|---0---------0-0-------------8-0---0---------0--------------------0--------|

G|---------------------------------------------------------------------------|
D|---------------------------------------------------4-5-----4-5-------------|
A|-----7-8-7---------8-7-6-7-6---------7-8-7-----5-------3-------------------|
E|---0---------0-0-------------8-0---0---------0-----------------------------|

0:42
G|---------------------------------------------------------------------------|
D|---------------------------------------------------------------------------|
A|-2---2-2-3-2-3-2---2-2-2-2-2-2-2-4---4---7---4--------4-3---2--------------|
E|---------------------------------------------------------------------------|

G|---------------------------------------------------------------------------|
D|---------------------------------------------------------------------------|
A|-----2-2-3-2-3-2---2-2-2-2-2-2-2-4---4---7---4--------4--5--6--------------|
E|---------------------------------------------------------------------------|

0:55
G|---------------------------------------------------------------------------|
D|---------------------------------------------------------------------------|
A|-----7-8-7---------8-7-6-7-6---------7-8-7-----10-----10-8-10-8s7----------|
E|-0-0---------0-0-------------8-0---0---------0--------------------0--------|

G|---------------------------------------------------------------------------|
D|---------------------------------------------------------------------------|
A|-----7-8-7---------8-7-6-7-6---------7-8-7-----10-----10-8-10-8s7----------|
E|---0---------0-0-------------8-0---0---------0--------------------0--------|

G|-----------------------------------------------12----12-10-12-10-----------|
D|---------------------------------------------------------------------------|
A|-----7-8-7---------8-7-6-7-6---------7-8-7---------------------------------|
E|---0---------0-0-------------8-0---0---------0---------------------0-------|

G|---------------------------------------------------------------------------|
D|---------------------------------------------------4-5-----4-5-------------|
A|-----7-8-7---------8-7-6-7-6---------7-8-7-----5-------3-------------------|
E|---0---------0-0-------------8-0---0---------0-----------------------------|

1:22
G|---------------------------------------------------------------------------|
D|---------------------------------------------------------------------------|
A|-2---2-2-3-2-3-2---2-2-2-2-2-2-2-4---4---7---4--------4-3---2--------------|
E|---------------------------------------------------------------------------|

G|---------------------------------------------------------------------------|
D|---------------------------------------------------------------------------|
A|-----2-2-3-2-3-2---2-2-2-2-2-2-2-4---4---7---4--------4--5--6--------------|
E|---------------------------------------------------------------------------|

1:35
G|---------------------------------------------------------------------------|
D|---------------------------------------------------------------------------|
A|-----7-8-7---------8-7-6-7-6---------7-8-7-----10-----10-8-10-8s7----------|
E|-0-0---------0-0-------------8-0---0---------0--------------------0--------|

G|---------------------------------------------------------------------------|
D|---------------------------------------------------4-5-----4-5-------------|
A|-----7-8-7---------8-7-6-7-6---------7-8-7-----5-------3-------2-1-0-------|
E|---0---------0-0-------------8-0---0---------0-----------------------4-3---|

1:49
G|---------------------------------------------------------------------------|
D|-----4-----4---------4---------------4-----4-------------------------------|
A|-------------------------5-4-2---------------------3-----------------------|
E|-2-2---2-2---------2---2-------5-2-2---2-2---------------------------------|

G|---------------------------------------------------------------------------|
D|-----4-----4---------4---------------4-----4-------------------------------|
A|-------------------------5-4-2---------------------------------------------|
E|-2-2---2-2---------2---2-------5-2-2---2-2---------3-------5---------------|

2:02 Triplets
G|---------------------------------------------------------------------------|
D|---------------------------------------------------------------------------|
A|-|222|222|222|222|222|222|222|222|000|000|000|000|000|000|000|000|---------|
E|---------------------------------------------------------------------------|

G|---------------------------------------------------------------------------|
D|---------------------------------------------------------------------------|
A|-|222|222|222|222|222|222|222|222|000|000|000|000|000|000|-----------------|
E|----------------------------------------------------------3---5------------|

2:15
G|---------------------------------------------------------------------------|
D|---------------------------------------------------------------------------|
A|-|222|2---2---2---|000|0---0---0---|222|2---2---2---|000|000|000|000|------|
E|---------------------------------------------------------------------------|

G|---------------------------------------------------------------------------|
D|---------------------------------------------------------------------------|
A|-|222|2---2---2---|333|3---3---3-------------------------------------------|
E|---------------------------------------------------------------------------|

2:25
G|---------------------------------------------------------------------------|
D|---------------------------------------------------------------------------|
A|-3---------------5---------------------------------------------------------|
E|-----------------------------------------3-------5-------------------------|

2:31
G|---------------------------------------------------------------------------|
D|---------------------------------------------------------------------------|
A|-|222|222|222|222|222|222|222|222|000|000|000|000|000|000|000|000|---------|
E|---------------------------------------------------------------------------|

G|---------------------------------------------------------------------------|
D|---------------------------------------------------------------------------|
A|-|222|222|222|222|222|222|222|222|000|000|000|000|000|000|-----------------|
E|----------------------------------------------------------3---2------------|

2:44
G|---------------------------------------------------------------------------|
D|-------------------------------------------------------------5-------------|
A|---------------10---------------5-7--------------10-----|567|-76|----------|
E|-|000|000|000|--------|000|000|0----|000|000|000|--------- ------5-----3---|

G|---------------------------------------------------------------------------|
D|-------------------------------------------------------------5-------------|
A|---------------10---------------5-7--------------10-----|567|-76|----------|
E|-|000|000|000|--------|000|000|0----|000|000|000|--------- ------5-----3---|

2:57
G|---------------------------------------------------------------------------|
D|---------------------------------------------------------------------------|
A|---------------------------------------------------------------------------|
E|-|0h22|222|0h22|222|0h22|222|5h77|7s5--------------------------------------|

G|---------------------------------------------------------------------------|
D|---------------------------------------------------------------------------|
A|---------------------------------5-----------------------------------------|
E|-|0h22|222|0h22|222|0h22|222|567|------------------------------------------|

G|---------------------------------------------------------------------------|
D|---------------------------------------------------------------------------|
A|---------------------------------------------------------------------------|
E|-|0h22|222|0h22|222|0h22|222|5h77|7s5--------------------------------------|

G|---------------------------------------------------------------------------|
D|---------------------------------------------------------------------------|
A|---------------------------------5----------3----------5-------------------|
E|-|0h22|222|0h22|222|0h22|222|567|------|345|------|567|--6-5-4-------------|

G|---------------------------------------------------------------------------|
D|----------------------------5----------------------------------------------|
A|------5----------3------------6-5-4---------------3-------4--5--6----------|
E|-|567|------|345|------|567|-----------------------------------------------|

3:19
G|---------------------------------------------------------------------------|
D|---------------------------------------------------------------------------|
A|-----7-8-7---------8-7-6-7-6---------7-8-7-----10-----10-8-10-8s7----------|
E|-0-0---------0-0-------------8-0---0---------0--------------------0--------|

G|-----------------------------------------------12----12-10-12-10s9---------|
D|---------------------------------------------------------------------------|
A|-----7-8-7---------8-7-6-7-6---------7-8-7---------------------------------|
E|---0---------0-0-------------8-0---0---------0---------------------0-------|

G|---------------------------------------------------------------------------|
D|---------------------------------------------------------------------------|
A|-----7-8-7---------8-7-6-7-6---------7-8-7-----10-----10-8-10-8------------|
E|---0---------0-0-------------8-0---0---------0--------------------0--------|

G|---------------------------------------------------------------------------|
D|---------------------------------------------------4-5-----4-5-------------|
A|-----7-8-7---------8-7-6-7-6---------7-8-7-----5-------3-------------------|
E|---0---------0-0-------------8-0---0---------0-----------------------------|

3:45
G|---------------------------------------------------------------------------|
D|---------------------------------------------------------------------------|
A|-2---2-2-3-2-3-2---2-2-2-2-2-2-2-4---4---7---4--------4-3---2--------------|
E|---------------------------------------------------------------------------|

G|---------------------------------------------------------------------------|
D|---------------------------------------------------------------------------|
A|-----2-2-3-2-3-2---2-2-2-2-2-2-2-4---4---7---4--------4--5--6--------------|
E|---------------------------------------------------------------------------|

4:00
G|---------------------------------------------------------------------------|
D|-------------------------------------------------------3--2----------------|
A|---8-7-8-7-5-7-8---8-7-8-7-5-7-----8-7-8-7-5-7-8-0--3--------5--3----------|
E|-0---------------0---------------0-----------------------------------------|


===============================================================================





Comments


Popular King Diamond tabs & chords
Sarah's Night Bass Tabs
Broken Glass Tabs
Burn Tabs
I'm Not A Stranger Tabs
Life After Death Tabs
Meet Me At Midnight 1 Tabs
More Than Pain Tabs
Mother's Getting Weaker Tabs
The Storm Tabs
Victimized 2 Tabs


Song lyrics



↑ Back to top | Tablatures and chords are parodies/interpretations of the original songs. You may use it for private study, scholarship, research or language learning purposes only
© 2014 AZChords.com Contact us | Privacy policy | DMCA | Add/correct tabs | Request tabs | Top 50 tabs