» » »

King Carole, Youve Got A Friend2 Bass tabs (ver.1)

Artists:  A B C D E F G H I J K L M N O P Q R S T U V W X Y Z # 

Youve Got A Friend2 Bass tabs (ver.1)

King Carole Tabs
Rating:
0/5 (0 votes)
Youve Got A Friend2 lessons Tabs too difficult? Try these video lessons and learn fast
                Carol King - You've Got A Friend

TablEdited by Jan Bjorklund   
You are welcome to request for tabs!
Fingering and positions as suggested by TablEdit, please use common sense.



Tuning : E A D G 	Time Signature: 4/4

 |       |       |       |        |       |       |       |        
|--------------------------------|--------------------------------|
|--------------------------------|0-----------0---2---------------|
|0-----------0-------------------|--------------------------------|
|----------------0-----------0---|--------------------------------|

 |       |       |       |        |       |       |       |        
|--------------------------------|1-------------------------------|
|--------------------------------|--------------------------------|
|0-------0-----------------------|----------------4-----------4---|
|------------------------0-------|--------------------------------|

 |       |       |       |        |       |       |       |        
|--------------------------------|--------------------------------|
|4-------------------------------|--------------------------------|
|----------------4---------------|4-------------------------------|
|--------------------------------|----------------4---------------|

 |       |       |       |        |       |       |       |        
|--------------------------------|--------------------------------|
|4-------------------------------|4-------------------------------|
|----------------4---------------|----------------4---------------|
|--------------------------------|--------------------------------|

 |       |       |       |        |       |       |       |        
|--------------------------------|--------------------------------|
|--------------------------------|2-------------------------------|
|2-----------2-------------------|----------------2---------------|
|----------------2-----------2---|--------------------------------|

 |       |       |       |        |       |       |       |        
|--------------------------------|--------------------------------|
|--------------------------------|--------------------------------|
|0-----------0---0-----------0---|0-------------------------------|
|--------------------------------|----------------0---------------|

 |       |       |       |        |       |       |       |        
|1-----------1-------------------|--------------------------------|
|----------------1-----------1---|--------------------------------|
|--------------------------------|4-----------4-------------------|
|--------------------------------|----------------4-----------4---|

 |       |       |       |        |       |       |       |        
|--------------------------------|--------------------------------|
|4-------------------------------|4-------------------------------|
|----------------4-----------4---|----------------4---------------|
|--------------------------------|--------------------------------|

 |       |       |       |        |       |       |       |        
|--------------------------------|--------------------------------|
|--------------------------------|--------------------------------|
|2-----------2-------------------|4-----------4-------------------|
|----------------2-----------2---|----------------4-----------4---|

 |       |       |       |        |       |       |       |        
|--------------------------------|--------------------------------|
|2-------------------------------|2-------------------------------|
|----------------2---------------|----------------2---------------|
|--------------------------------|--------------------------------|

 |       |       |       |        |       |       |       |        
|--------------------------------|--------------------------------|
|--------------------------------|--------------------------------|
|0-----------0-------------------|0-----------0-------------------|
|----------------0-----------0---|----------------0-----------0---|

 |       |       |       |        |       |       |       |        
|--------------------------------|--------------------------------|
|0-------------------------------|----------------2-----------2---|
|----------------0---------------|2-----------2-------------------|
|--------------------------------|--------------------------------|

 |       |       |       |        |       |       |       |        
|--------------------------------|--------------------------------|
|--------------------------------|--------------------------------|
|0-------------------------------|0-----------0-------------------|
|----------------0---------------|----------------0-----------0---|

 |       |       |       |        |       |       |       |        
|--------------------------------|--------------------------------|
|2-----------2-------------------|2-----------2-------------------|
|----------------2-----------2---|----------------2-----------2---|
|--------------------------------|--------------------------------|

 |       |       |       |        |       |       |       |        
|--------------------------------|--------------------------------|
|--------------------------------|--------------------------------|
|0-------------------------------|0-------------------------------|
|----------------0---------------|----------------0---------------|

 |       |       |       |        |       |       |       |        
|--------------------------------|--------------------------------|
|0-------------------------------|4-------------------------------|
|----------------0---------------|----------------4---------------|
|--------------------------------|--------------------------------|

 |       |       |       |        |       |       |       |        
|--------------------------------|--------------------------------|
|0-------------------------------|--------2-----------------------|
|----------------4-----------4---|2-----------------------2-------|
|--------------------------------|--------------------------------|

 |       |       |       |        |       |       |       |        
|--------------------------------|--------------------------------|
|--------------------------------|0---------------2-----------2---|
|0-------------------------------|--------------------------------|
|----------------0---------------|--------------------------------|

 |       |       |       |        |       |       |       |        
|--------------------------------|1-----------1-------------------|
|--------------------------------|--------------------------------|
|0-------0-----------------------|----------------4-----------4---|
|------------------------0-------|--------------------------------|

 |       |       |       |        |       |       |       |        
|--------------------------------|--------------------------------|
|4-----------4-------------------|--------------------------------|
|----------------4-----------4---|4-----------4-------------------|
|--------------------------------|----------------4-----------4---|

 |       |       |       |        |       |       |       |        
|--------------------------------|--------------------------------|
|4-------------------------------|4-------------------------------|
|----------------4-----------4---|----------------4---------------|
|--------------------------------|--------------------------------|

 |       |       |       |        |       |       |       |        
|--------------------------------|--------------------------------|
|--------------------------------|2-------------------------------|
|2-------------------------------|----------------2---------------|
|----------------2---------------|--------------------------------|

 |       |       |       |        |       |       |       |        
|--------------------------------|--------------------------------|
|--------------------------------|--------------------------------|
|0---------------0-----------0---|0-------------------------------|
|--------------------------------|----------------0---------------|

 |       |       |       |        |       |       |       |        
|1-------------------------------|--------------------------------|
|----------------1---------------|--------------------------------|
|--------------------------------|4-----------4-------------------|
|--------------------------------|----------------4-----------4---|

 |       |       |       |        |       |       |       |        
|--------------------------------|--------------------------------|
|4-----------4-------------------|4-----------4-------------------|
|----------------4-----------4---|----------------4-----------4---|
|--------------------------------|--------------------------------|

 |       |       |       |        |       |       |       |        
|--------------------------------|--------------------------------|
|--------------------------------|--------------------------------|
|2-------------------------------|4-------------------------------|
|----------------2---------------|----------------4---------------|

 |       |       |       |        |       |       |       |        
|--------------------------------|--------------------------------|
|2-------------------------------|2-------------------------------|
|----------------2---------------|----------------2---------------|
|--------------------------------|--------------------------------|

 |       |       |       |        |       |       |       |        
|--------------------------------|--------------------------------|
|--------------------------------|--------------------------------|
|0-------------------------------|0-----------0-------------------|
|----------------0---------------|----------------0-----------0---|

 |       |       |       |        |       |       |       |        
|--------------------------------|--------------------------------|
|0-----------0-------------------|----------------2---------------|
|----------------0-----------0---|2-----------2-------------------|
|--------------------------------|--------------------------------|

 |       |       |       |        |       |       |       |        
|--------------------------------|--------------------------------|
|--------------------------------|--------------------------------|
|0-----------0-------------------|0-----------0-----------0-------|
|----------------0-----------0---|----------------0---------------|

 |       |       |       |        |       |       |       |        
|--------------------------------|--------------------------------|
|2-----------2-------------------|2-----------2-----------2-------|
|----------------2-----------2---|----------------2---------------|
|--------------------------------|--------------------------------|

 |       |       |       |        |       |       |       |        
|--------------------------------|--------------------------------|
|--------------------------------|--------------------------------|
|0-----------0-------------------|0-------------------------------|
|----------------0-----------0---|----------------0---------------|

 |       |       |       |        |       |       |       |        
|--------------------------------|--------------------------------|
|0-------------------------------|4-----------4-------------------|
|----------------0---------------|----------------4-----------4---|
|--------------------------------|--------------------------------|

 |       |       |       |        |       |       |       |        
|--------------------------------|--------------------------------|
|0-----------0-------------------|--------2-----------2-----------|
|----------------4-----------4---|2-----------------------2-------|
|--------------------------------|--------------------------------|

 |       |       |       |        |       |       |       |        
|0-----------0---0-----------0---|--------------------------------|
|--------------------------------|0-----------0-------------------|
|--------------------------------|----------------0-----------0---|
|--------------------------------|--------------------------------|

 |       |       |       |        |       |       |       |        
|--------------------------------|--------------------------------|
|--------------------------------|--------------------------------|
|0-----------0---0---------------|0-------------------------------|
|--------------------------------|----------------0---------------|

 |       |       |       |        |       |       |       |        
|--------------------------------|0-------------------------------|
|0-------------------------------|----------------0---------------|
|----------------0---------------|--------------------------------|
|--------------------------------|--------------------------------|

 |       |       |       |        |       |       |       |        
|--------------------------------|--------------------------------|
|4-------------------------------|--------------------------------|
|----------------4---------------|2-----------2-------------------|
|--------------------------------|----------------2-----------2---|

 |       |       |       |        |       |       |       |        
|--------------------------------|--------------------------------|
|2-------------------------------|2-------------------------------|
|----------------2---------------|----------------2---------------|
|--------------------------------|--------------------------------|

 |       |       |       |        |       |       |       |        
|--------------------------------|--------------------------------|
|--------------------------------|--------------------------------|
|0-------------------------------|0-----------0-------------------|
|----------------0---------------|----------------0-----------0---|

 |       |       |       |        |       |       |       |        
|--------------------------------|--------------------------------|
|0-------------------------------|----------------2---------------|
|----------------0---------------|2-------------------------------|
|--------------------------------|--------------------------------|

 |       |       |       |        |       |       |       |        
|--------------------------------|--------------------------------|
|--------------------------------|--------------------------------|
|0-------------------------------|0-----------0-------------------|
|----------------0---------------|----------------0---------------|

 |       |       |       |        |       |       |       |        
|--------------------------------|--------------------------------|
|2-----------2-------------------|2-----------2-----------2-------|
|----------------2-----------2---|----------------2---------------|
|--------------------------------|--------------------------------|

 |       |       |       |        |       |       |       |        
|--------------------------------|--------------------------------|
|--------------------------------|--------------------------------|
|0-----------0-------------------|0-------------------------------|
|----------------0-----------0---|----------------0---------------|

 |       |       |       |        |       |       |       |        
|--------------------------------|--------------------------------|
|0-------------------------------|4-----------4-------------------|
|----------------0---------------|----------------4-----------4---|
|--------------------------------|--------------------------------|

 |       |       |       |        |       |       |       |        
|--------------------------------|--------------------------------|
|0-------------------------------|2-------------------------------|
|----------------4-----------4---|----------------2---------------|
|--------------------------------|--------------------------------|

 |       |       |       |        |       |       |       |        
|--------------------------------|--------------------------------|
|--------------------------------|0-------------------------------|
|0-----------0-------------------|----------------0---------------|
|----------------0-----------0---|--------------------------------|

 |       |       |       |        |       |       |       |        
|--------------------------------|--------------------------------|
|--------------------------------|0-------------------------------|
|0-----------0-------------------|----------------0---------------|
|----------------0-----------0---|--------------------------------|

 |       |       |       |        |       |       |       |        
|--------------------------------|--------------------------------|
|--------------------------------|0-------------------------------|
|0-------------------------------|----------------0---------------|
|----------------0---------------|--------------------------------|

 |       |       |       |        |       |       |       |        
|--------------------------------|--------------------------------|
|--------------------------------|0-----------0-------------------|
|0-------------------------------|----------------0-----------0---|
|----------------0---------------|--------------------------------|

 |       |       |       |        |       |       |       |        
|--------------------------------|--------------------------------|
|--------------------------------|0-------2-----------------------|
|0-----------0---0---------------|----------------0-----------0---|
|--------------------------------|--------------------------------|
            

comments powered by Disqus
↑ Back to top | King Carole Bass for Youve Got A Friend2. Lyrics for acoustic guitar and electric guitar. Tablatures and chords are parodies/interpretations of the original songs. You may use it for private study, scholarship, research or language learning purposes only