>
 >
Get Off My Back Woman

Get Off My Back Woman Bass Tabs

King B B - Get Off My Back Woman chords, tabs, tablatures, lyrics

Guitar lessons | Add/correct | Request | Top 50 tabs Artists:  A B C D E F G H I J K L M N O P Q R S T U V W X Y Z 0-9

Get Off My Back Woman Bass Tabs – King B B

CD, Sheet music, Poster

Do you like Get Off My Back Woman? Share with your friends now
Bass Tabs
bb king _ get off my back woman

TablEdited by Jan Bjorklund   
You are welcome to request for tabs!
Fingering and positions as suggested by TablEdit, please use common sense.


TablEdited by Jan.Bjorklund
Tuning : E A D G 	Time Signature: 4/4

 |       |       |       |        |       |       |       |        
|------------------------------2-|--------------------------------|
|------------------0-0-1-1---2---|--------0---1---2---------------|
|0---0---0-----0-----------------|--4---4-------------------------|
|--------------------------------|------------------0-2---3-0-4-0-|

 |       |       |       |        |       |       |       |        
|--------------------------------|2-----------------------0---0-2-|
|--------------------0-1-----4---|--------0---1---2---4-2---2-----|
|0---0---0-----0-4-0-------------|--0-4-0---0---0-----------------|
|--------------------------------|--------------------------------|

 |       |       |       |        |       |       |       |        
|--------------------0-1-2---5-2-|7-2-5---5-2-5-2-7-2-5-2-7-------|
|0---0---0-----0-4-0-------------|--------------------------0-1-2-|
|--------------------------------|--------------------------------|
|--------------------------------|--------------------------------|

 |       |       |       |        |       |       |       |        
|----------------------------0-1-|2-------------------------------|
|--------------0---0-1---2-------|--------0---1-2-----------------|
|0---0-----0-4-------------------|--0-4-0-----------------------0-|
|--------------------------------|----------------0-0-2-0-3-0-4---|

 |       |       |       |        |       |       |       |        
|--------------------------------|----7---0-7-1-2-2-2-4-5-2-0-----|
|2---2-----0---------------0-2---|0-0---4---------------------2---|
|------------2-------0---2-------|--------------------------------|
|--------------4---4-------------|------------------------------0-|

 |       |       |       |        |       |       |       |        
|--------------------------------|2-----------------------0---1-2-|
|--------------------0---1---2---|--------0---1---2-2-4-2---2-----|
|0---0-------0-4---4-------------|--0-4-0-------------------------|
|--------------------------------|--------------------------------|

 |       |       |       |        |       |       |       |        
|--------------------------------|--------------------------------|
|--------------------0-------2---|--------------------0-------2---|
|0---0---------4---4-------------|0---0---------4---4-------------|
|--------------------------------|--------------------------------|

 |       |       |       |        |       |       |       |        
|--------------------------------|2-----------------------0-2-----|
|--------------------0-------2---|--------0---1---2-2-4-------2---|
|0---0---------4---4-------------|--0-4-0-------------------------|
|--------------------------------|--------------------------------|

 |       |       |       |        |       |       |       |        
|--------------------0-------2---|--------------------0-----2-2---|
|0---0---------4---0-------0-----|0---0-----0-4-4---0-------------|
|--------------------------------|--------------------------------|
|--------------------------------|--------------------------------|

 |       |       |       |        |       |       |       |        
|--------------------------------|----------------------------0---|
|--------------------0-----2-2---|--------------0-----1-----2-----|
|0---0---------4---0-------------|0---0-----0-4-----0-------------|
|--------------------------------|--------------------------------|

 |       |       |       |        |       |       |       |        
|--------------1-----2-3-4-------|------------------2---2-4---2---|
|2---2-------2-----2-------2-----|0---0---------4-----4---------4-|
|--------------------------------|--------------------------------|
|--------------------------------|--------------------------------|

 |       |       |       |        |       |       |       |        
|--------------------------------|------------------0-0-----0-2---|
|--------------------0-----0-1---|--2-2-----4-4-----------------4-|
|0---0---------4---4-------------|--------------------------------|
|--------------------------------|--------------------------------|

 |       |       |       |        |       |       |       |        
|------------------------2---2---|--------------------------------|
|------------------2-4-2---------|------------------2-4---2---2-2-|
|0---0---------4-----------------|0---0---------3-4---------4-----|
|--------------------------------|--------------------------------|

 |       |       |       |        |       |       |       |        
|------------------------2---2---|--------------------------------|
|------------------2-4-2---------|------------------2-4---2---2---|
|0---0---------4-----------------|0---0---------3-4---------4-----|
|--------------------------------|--------------------------------|

 |       |       |       |        |       |       |       |        
|------------------2-4-2-7-2-7---|------------------2-4---2-------|
|0---0---------3-4---------------|0---0---------3-4---------3-4---|
|--------------------------------|--------------------------------|
|--------------------------------|--------------------------------|

 |       |       |       |        |       |       |       |        
|------------------------2---2---|--------------------------------|
|------------------2-4-2---2-----|------------------2-4---2---0-1-|
|0---0---------3-4---------------|0---0---------3-4---------4-----|
|--------------------------------|--------------------------------|

 |       |       |       |        |       |       |       |        
|--------------0-1-4-6-4-9---9---|------------------2-4-2-7-2-4-5-|
|2---2---------------------------|0---0---------3-4---------------|
|--------------------------------|--------------------------------|
|--------------------------------|--------------------------------|

 |       |       |       |        |       |       |       |        
|------------------------2---2-2-|------------------0-------------|
|------------------2-4-2---2-----|2-2-4---2---0-1-2---2-0---------|
|0---0---------3-4---------------|------4---4-------------3-------|
|--------------------------------|--------------------------0-3-4-|

 |       |       |       |        |       |       |       |        
|------------2-----------2---2---|--------------------------0-2---|
|------------------2-4-----------|--0-0-----1---2-2-----4-------4-|
|0---0-----0---4---------------4-|--------------------------------|
|--------------------------------|--------------------------------|

 |       |       |       |        |       |       |       |        
|------------------------2---2---|--------------------------2-----|
|------------------2-4-2---------|--0-0-----1---2-2-----3-4---4---|
|0---0---------3-4-------------4-|--------------------------------|
|--------------------------------|--------------------------------|

 |       |       |       |        |       |       |       |        
|------------------2-4-2-7---7---|--0-0-----1---2-2---2-4-5---5---|
|0---0---------3-4-------------4-|--------------------------------|
|--------------------------------|--------------------------------|
|--------------------------------|--------------------------------|

 |       |       |       |        |       |       |       |        
|------------------------2---2---|------------------------0---0---|
|------------------2-4-2---------|--0-0-----1---2-2-----2---2-----|
|0---0---------3-4-------------4-|--------------------------------|
|--------------------------------|--------------------------------|

 |       |       |       |        |       |       |       |        
|--------------0-1-4-6-4-9---9-7-|----------0---1---2-4-2-5---5---|
|2---2---------------------------|--0-4---------------------------|
|--------------------------------|--------------------------------|
|--------------------------------|--------------------------------|

 |       |       |       |        |       |       |       |        
|--------------------------------|--------------------0-----------|
|--------------------2---4---2---|----0-0---1-1-----4---2---0-----|
|0---0-------4-------------------|--4-------------------------3---|
|--------------------------------|--------------------------------|

 |       |       |       |        |       |       |       |        
|--------------------------------|2-------------------------0-2---|
|--------------------2---4---2---|--------0-------1---2---4-------|
|0---0-------4-------------------|--4-----------0---0-------------|
|--------------------------------|--------------------------------|

 |       |       |       |        |       |       |       |        
|--------------------------------|2-------------------------0-2---|
|--------------------2---4---2---|--------0-------1---2---4-------|
|0-0-0-------4-------------------|--4-----------0---0-------------|
|--------------------------------|--------------------------------|

 |       |       |       |        |       |       |       |        
|--------------------2---4---2---|7-------0-------1---2---4-2-0---|
|0---0-------4-------------------|--4---0-------0---0-------------|
|--------------------------------|--------------------------------|
|--------------------------------|------------------------------0-|

 |       |       |       |        |       |       |       |        
|--------------------------------|2-----------------------0---0---|
|--------------------2-------4---|--------0-------1---2-----2-----|
|0---0-------4-------------------|--4---0-------0---0-------------|
|--------------------------------|--------------------------------|

 |       |       |       |        |       |       |       |        
|------------1-----------6---4---|7-7-----0---1---2-2-5---2-------|
|2---2---------------------------|----4-4---------------------2---|
|--------------------------------|--------------------------------|
|--------------------------------|--------------------------------|

 |       |       |       |        |       |       |       |        
|--------------------------------|2-------------------0---0-1-2---|
|--------------------2---4---2---|--------0---1---2-2---2---------|
|0---0-------4-------------------|--4---0---0---0-----------------|
|--------------------------------|--------------------------------|

 |       |       |       |        |       |       |       |        
|--------------------------------|2---------------------------2---|
|--------------------2---4---2---|--------0---1---2-2-4---2-4-----|
|0---0-------4-------------------|--4---0-------------------------|
|--------------------------------|--------------------------------|

 |       |       |       |        |       |       |       |        
|--------------------------------|2-----------------------0-1-2---|
|--------------------2---4---2---|--------0-0-1-1-2---4-----------|
|0---0-------4-------------------|--4---0-------------------------|
|--------------------------------|--------------------------------|

 |       |       |       |        |       |       |       |        
|--------------------2---5---2---|7-7-----0-0-1-1-2-5-2-5-2-5-2---|
|0---0-------3---4---------------|----4-4-------------------------|
|--------------------------------|--------------------------------|
|--------------------------------|--------------------------------|

 |       |       |       |        |       |       |       |        
|--------------------------------|2-------------------------------|
|--------------------2---4---2---|--------0---1---2---4---2---0-1-|
|0---0-------4-------------------|--0-4-0-------------------4-----|
|--------------------------------|--------------------------------|

 |       |       |       |        |       |       |       |        
|--------------0-1---4---7---4---|7-2-5-2-5-2-7-2-5-2-7-2-5-2-0-2-|
|2---2-------4-------------------|--------------------------------|
|--------------------------------|--------------------------------|
|--------------------------------|--------------------------------|

 |       |       |       |        |       |       |       |        
|------------------------0-------|2-2---5---2-5-2-5-2-----------2-|
|--------------------2-------2---|------------------------0-1-2---|
|0---0-------3---4---------------|--------------------------------|
|--------------------------------|--------------------------------|

 |       |       |       |        |       |       |       |        
|--------------------------------|2-2-2-2-2-2-2-2-2-2-0-0---------|
|--------------0-1---2---4---2---|------------------------4-2-----|
|0---0-------4-------------------|----------------------------3-4-|
|--------------------------------|--------------------------------|

 |       |       |       |        |       |       |       |        
|--------------------------------|2-----------------------0-1-2---|
|--------------------2---4---2---|--------0---1---2---4-----------|
|0-0---------4-4-----------------|--0-4-0---------------0---------|
|--------------------------------|--------------------------------|

 |       |       |       |        |       |       |       |        
|--------------------2---5---2---|7-------0---1---2---5---2-0-----|
|0-0-0-------4-4-4---------------|--0-4-0---0---0---0---------2---|
|--------------------------------|--------------------------------|
|--------------------------------|--------------------------------|

 |       |       |       |        |       |       |       |        
|--------------------------------|2-----------------------0---0---|
|--------------------2-------4---|--------0-------1---2-----2-----|
|0---0-------4-------------------|--4---0-------0---0-------------|
|--------------------------------|--------------------------------|

 |       |       |       |        |       |       |       |        
|------------1-----------6---4---|7-7-----0---1---2-2-5---2-------|
|2---2---------------------------|----4-4---------------------2---|
|--------------------------------|--------------------------------|
|--------------------------------|--------------------------------|

 |       |       |       |        |       |       |       |        
|--------------------------------|--------------------------------|
|--------------------------------|--------------------------------|
|0-------------------------------|--------------------------------|
|--------------------------------|--------------------------------|





Comments


Popular King B B tabs & chords
Dont Answer The Door Bass Tabs
Sweet Sixteen Bass Tabs
The Thrill Is Gone Bass Tabs
Why I Sing The Blues Bass Tabs
The Thrill Is Gone Chords
Stand By Me (Intro) Tabs
Sweet Sixteen 1 Tabs
The Thrill Is Gone (Intro) Tabs
Three Oclock Blues Tabs
Three Oclock Blues 1 Tabs


Song lyrics



↑ Back to top | Tablatures and chords are parodies/interpretations of the original songs. You may use it for private study, scholarship, research or language learning purposes only
© 2014 AZChords.com Contact us | Privacy policy | DMCA | Add/correct tabs | Request tabs | Top 50 tabs