» » »

King Adora, Scream And Shout Tabs (ver.1)

Artists:  A B C D E F G H I J K L M N O P Q R S T U V W X Y Z # 

Scream And Shout Tabs (ver.1)

King Adora Tabs
 Rating:
4/5 (4 votes)
Scream And Shout lessons Tabs too difficult? Try these video lessons and learn fast
1
                cream and Shout


Intro: Ok this is played with effects that I don't have so I just play it with a bit of wah wah, sounds good enough


e  -----------------------------------------------------------------------------------|
B ------------------------------------------------------------------------------------|
G ----------------9-9-7-7-7-7-7-7-----------------------------------------------------|
D --9-9-9-9-9-9--------------------7-7--------------9-9 7-7-7-7-7-7-7-7---------------|
A ---------------------------------------9-9-9-9-9-9----------------------------------|
E ------------------------------------------------------------------------------------|

Crank up the distortion then :

e  -----------------------------------------------------------------------------|
B ------------------------------------------------------------------------------|
G ---------------9---7-7-7-7-7---------------------4----------------------------|
D -9-9-9-9-9---9---7-7-7-7-7---7---4-4-4-4-4---4--7-7-7-7-7---------------------|
A -9-9-9-9-9---7---5-5-5-5-5---7---4-4-4-4-4---2--7-7-7-7-7---------------------|
E -7-7-7-7-7---------------------5---2-2-2-2-2-------5-5-5-5-5------------------|

Verse: The 1st part is mainly bass but if you're just playing yourself palm muting  these power chords 
ruin it or anything


               let it ring                PM -----------------------------------------------------------------------


e  -----------------------------------------------------------------------------------------------|
B ------------------------------------------------------------------------------------------------|
G ------------------------------------------------------------------------------------------------|
D --7-/-9~---------------------\-5-5-5---5-5-5---5-5-5---5-5-5---/-7-7-7---7-7-7---7-7-7---7-7-7--|
A --7-/-9~---------------------\-5-5-5---5-5-5---5-5-5---5-5-5---/-7-7-7---7-7-7---7-7-7---7-7-7--|
E --5-/-7~---------------------\-3-3-3---3-3-3---3-3-3---3-3-3---/-5-5-5---5-5-5---5-5-5---5-5-5--|


  PM --------------------- - - - -  -  -   -   < lightly let off the palm muting in rhythm


e ------------------------------------------\-0-0-0-0-0--|
B ------------------------------------------\-0-0-0-0-0--|      <<<<<<<<<<<<<<<<<<<<<<<<<<<<
G ------------------------------------------\-1-1-1-1-1--|          Play The E Chord A Few Times In Rhythm
D --\-4-4-4---4-4-4---4-4-4-4-4-4-4-4---\-2-2-2-0-2------|                <<<<<<<<<<<<<<<<<<<<<<<<<<<<
A --\-4-4-4---4-4-4---4-4-4-4-4-4-4-4---\-2-2-2-0-2------|
E --\-2-2-2---2-2-2---2-2-2-2-2-2-2-2---\-0-0-0-0-0------|
                                 PM ---------------------|


e  ----------------------------------------------------------------------------------|
B -----------------------------------------------------------------------------------|
G --4-4-4-4-4-4-4-4------------------------------------------------------------------|
D --4-4-4-4-4-4-4-4----4-4-4---4-4-4---4-4-4---4-4-4---/-7-7-7-7-7-7-7-7-7-7-7-7-----|
A --2-2-2-2-0-2-2-2----4-4-4---4-4-4---4-4-4---4-4-4---/-7-7-7-7-7-7-7-7-7-7-7-7-----|
E ------------------------2-2-2---2-2-2---2-2-2---2-2-2---/-5-5-5-5-5-5-5-5-5-5-5-5--|


Chorus : Same as the distorted part of the intro


e  -------------------------------------------------------------|
B --------------------------------------------------------------|            <<<<<<<
G ---------------9---7-7-7-7-7---------------------4------------|             Play Twice
D -9-9-9-9-9---9---7-7-7-7-7---7---4-4-4-4-4---4--7-7-7-7-7-----|                    <<<<<<<
A -9-9-9-9-9---7---5-5-5-5-5---7---4-4-4-4-4---2--7-7-7-7-7-----|
E -7-7-7-7-7---------------------5---2-2-2-2-2-------5-5-5-5-5--|

After the chorus, repeat the verse again and then move onto the 2nd chorus which is the same as the first.


Bridge:


e  ------------------------------------------------------------------------------------|
B -------------------------------------------------------------------------------------|   <<<<<<<
G ----------------9-9-7-7-7-7-7-7------------------------------------------------------|       Play Twice
D --9-9-9-9-9-9--------------------7-7--------------9-9 7-7-7-7-7-7-7-7----------------|         <<<<<<<
A ---------------------------------------9-9-9-9-9-9-----------------------------------|
E -------------------------------------------------------------------------------------|

Outro:


e  -----------------------------------------------------------------------------------|
B ------------------------------------------------------------------------------------| <<<<<<<
G ---------------9---7-7-7-7-7---/-4--------------------------------------------------|      Play Twice
D -9-9-9-9-9---9---7-7-7-7-7---/-4-7-7-7-7-7------------------------------------------|           <<<<<<<
A -9-9-9-9-9---7---5-5-5-5-5---/-2-7-7-7-7-7------------------------------------------|
E -7-7-7-7-7-------------------------5-5-5-5-5----------------------------------------|

then...


e  -------------------------------------------------------------------------------------|
B --------------------------------------------------------------------------------------|
G -------------4----------------------------4-------------------------------------------|
D -4-4-4-4-4-4-7-7-7-7-7-----4-4-4-4-4-4-7-7-7-7-7-/-9----------------------------------|
A -4-4-4-4-4-2-7-7-7-7-7-----4-4-4-4-4-2-7-7-7-7-7-/-9----------------------------------|
E -2-2-2-2-2----5-5-5-5-5-----2-2-2-2-2---5-5-5-5-5-/-7---------------------------------|
            
Submit corrections

comments powered by Disqus
↑ Back to top | King Adora Tabs for Scream And Shout. Lyrics for acoustic guitar and electric guitar. 1 Tablatures and chords are parodies/interpretations of the original songs. You may use it for private study, scholarship, research or language learning purposes only