>
 >
Depression

Depression Guitar Tabs

King Adora - Depression chords, tabs, tablatures, lyrics

Guitar lessons | Add/correct | Request | Top 50 tabs Artists:  A B C D E F G H I J K L M N O P Q R S T U V W X Y Z 0-9

Depression Guitar Tabs – King Adora

CD, Sheet music, Poster

Do you like Depression? Share with your friends now
Tabs
King Adora - Depression


After realing the tab i submitted on my old account was pretty poor i thought
i would give this one a better go, (plus the other was only for the demo)

Tuning (E A D G B E)


Intro
-----

Guitar 1

E [---------------------------------]
B [-----------8---------------------]
G [-----5-----------5-----5---4-----]
D [-/-7-----7-----7-----7---------5-] x3
A [---------------------------------]
E [---------------------------------]

play 2 below riffs over each other

E [------------------------------------------------------------]
B [-8b9---8----------------------------------------------------]
G [---------5---7b8-7-5-7-5-7b8---7--------------------7b8-8r7-]
D [-----------------------------------7---7-9-9b10r9-7---------]
A [------------------------------------------------------------]
E [------------------------------------------------------------]

E [------------------------------------------------------------]
B [-8b9---8----------------------------------------------------]
G [---------5---4h5p4---4h5-7b8---7--------------------7b8-8r7-]
D [-------------------7--------------/7---7-9-9b10r9-7---------]
A [------------------------------------------------------------]
E [------------------------------------------------------------]


Guitar 2

E [-------------------------------------------------------------]
B [-------------------------------------------------------------]
G [-------------------------------------------------------------]
D [-7-7--7-7--7-7--7-7-7-7-7-7-7-3-3--3-3--3-3--3-3-3-3-3-3-3-3-]
A [-7-7--7-7--7-7--7-7-7-7-7-7-7-3-3--3-3--3-3--3-3-3-3-3-3-3-3-]
E [-5-5--5-5--5-5--5-5-5-5-5-5-5-1-1--1-1--1-1--1-1-1-1-1-1-1-1-]

E [----------------------------------------------------------]
B [----------------------------------------------------------]
G [-7--7--7-7-7-7--7-7-7--7-7-7------------------------------]
D [-7--7--7-7-7-7--7-7-7--7-7-7-3--3--3-3-3-5--5-5-5-5-5-5-5-]
A [-5--5--5-5-5-5--5-5-5--5-5-5-3--3--3-3-3-5--5-5-5-5-5-5-5-]
E [-----------------------------1--1--1-1-1-3--3-3-3-3-3-3-3-]



Verse
-----

Guitar 1

on below riff, palm mute all notes on E string

E [---------------------------------------------------------------------]
B [---------------------------------------------------------------------]
G [---------------------------------------------------------------------]
D [-----7-----7---7-6---6-----6-6-6-----5---5-5---5-----4---4-4---4-3-3-]
A [---------------------------------------------------------------------]
E [-5-5---5-5---5-----4---4-4-------3-3---3-----3---2-2---2-----2-------]



Bridge
------

Guitar 1

E [------------15----15------14b15r14--------------------15----15------14b15r14--------]
B [-------13------13------15----------15--15--------13------13------15----------15--15-]
G [------------------------------------------------------------------------------------]
D [------------------------------------------------------------------------------------]
A [-/15---------------------------------------/15--------------------------------------]
E [------------------------------------------------------------------------------------]

after second verse play guitar 1 a little different:

E [------------15----15------14b15r14--------------------15----15----------------------]
B [-------13------13------15----------15--15--------13------13----13---12---12-10-10-8-]
G [------------------------------------------------------------------------------------]
D [------------------------------------------------------------------------------------]
A [-/15---------------------------------------/15--------------------------------------]
E [------------------------------------------------------------------------------------]


Guitar 2

E [-----------------------------------------------------------------]
B [-----------------------------------------------------------------]
G [---------------7---7-7-7---7-7-7---------------7---7-7-7---7-7-7-]
D [-3---3---3-3-3-7---7-7-7---7-7-7-3---3---3-3-3-7---7-7-7---7-7-7-]
A [-3---3---3-3-3-5---5-5-5---5-5-5-3---3---3-3-3-5---5-5-5---5-5-5-]
E [-1---1---1-1-1-------------------1---1---1-1-1-------------------]



Chorus
------

Guitar 1

E [----------------------------------------------------------------------------------]
B [------13---12-13-12---------12b13r12-----------13---12-13-12-10---10-12b13r12-10--]
G [-14-----------------14---14----------14---10--------------------------------------]
D [----------------------------------------------------------------------------------]
A [----------------------------------------------------------------------------------]
E [----------------------------------------------------------------------------------]

E [-------------------------------------------------------------------]
B [-15----13----12-13----15b17r15-----------------------15b17---17r15-]
G [----14----14-------14------------14-16---16b17r16p14---------------]
D [-------------------------------------------------------------------]
A [-------------------------------------------------------------------]
E [-------------------------------------------------------------------]


Guitar 2

E [-------------------------------------------------------------]
B [-------------------------------------------------------------]
G [-------------------------------------------------------------]
D [-7-7--7-7--7-7--7-7-7-7-7-7-7-3-3--3-3--3-3--3-3-3-3-3-3-3-3-]
A [-7-7--7-7--7-7--7-7-7-7-7-7-7-3-3--3-3--3-3--3-3-3-3-3-3-3-3-]
E [-5-5--5-5--5-5--5-5-5-5-5-5-5-1-1--1-1--1-1--1-1-1-1-1-1-1-1-]

E [----------------------------------------------------------]
B [----------------------------------------------------------]
G [-7--7--7-7-7-7--7-7-7--7-7-7------------------------------]
D [-7--7--7-7-7-7--7-7-7--7-7-7-3--3--3-3-3-5--5-5-5-5-5-5-5-]
A [-5--5--5-5-5-5--5-5-5--5-5-5-3--3--3-3-3-5--5-5-5-5-5-5-5-]
E [-----------------------------1--1--1-1-1-3--3-3-3-3-3-3-3-]



Bridge
------

Guitar 1

E [-------------------------------------------------------]
B [-------------------------------------------------------]
G [-----9b10r9---7------------------------5---5b7r5-------]
D [-7----------------7-9b10r9---7---7--9-------------9--7-]
A [-------------------------------------------------------]
E [-------------------------------------------------------]

E [-------------------------------------------------------]
B [-------------------------------------------------------]
G [-----9b10r9---7---7-7-9-9b10r9---------5---5b7r5-------]
D [-7-------------------------------7--9-------------9--7-]
A [-------------------------------------------------------]
E [-------------------------------------------------------]

E [---------------------]
B [---------------------]
G [-7-b-9---b9-7---5--4-]
D [---------------------]
A [---------------------]
E [---------------------]



Solo
----

Guitar 1

E [--------------------------------------------------------------------------------------------------]
B [----------8~----8b10---8--------8b10---8---8b10-8b10---10-12-12b13-12-10-15b17-17-17r15---13---12-]
G [----5------------------------------------9--------------------------------------------------------]
D [-/7-----7------------------10---------------------------------------------------------------------]
A [--------------------------------------------------------------------------------------------------]
E [--------------------------------------------------------------------------------------------------]

E [---------------15~----------------15b17~---------------------------------------------------------------]
B [-------13-----------------13---------------15---15---15-13-15b17r15---------------------15b17-17-17r15-]
G [-12s14------14------12s14------14-------------------------------------14-16-16b17b16-14----------------]
D [-------------------------------------------------------------------------------------------------------] x2
A [-------------------------------------------------------------------------------------------------------]
E [-------------------------------------------------------------------------------------------------------]

E [----------------------------------------------------------------------------------------------------------]
B [-------------------15b17-17-17r15-------------------15b17-17-17r15----------------------------------------]
G [-14-16-16b17b16-14----------------14-16-16b17b16-14----------------14-16-16b17b16-14---14b15-14-12---12s9-]
D [----------------------------------------------------------------------------------------------------------]
A [----------------------------------------------------------------------------------------------------------]
E [----------------------------------------------------------------------------------------------------------]



Outro
-----

this is just a small piece on the piano based on the intro
when playing the below riff, leave all bass note (on A string)
ring out until next time they are struck

E [---------------------------------------------------------------]
B [---------8-------------------------------8---------------------]
G [---5---5-------5-----5---4---------5---5-------5-----5---4-----]
D [-7---7-------7-----7---7-----5---7---7-------7-----7---7-----5-]
A [-0---------------0---------------8---------------8-------------]
E [---------------------------------------------------------------]

E [---------------------------------------------------------------]
B [---------8-------------------------------8---------------------]
G [---5---5-------5-----5---4---------5---5-------5-----5---4-----]
D [-7---7-------7-----7---7-----5---7---7-------7---5-7---7-----5-]
A [-5---------------5---------------8-----------------------------]
E [---------------------------------------------------------------]





Comments


Popular King Adora tabs & chords
Aceface 1 Chords
Aceface Tabs
Big Isn't Beautiful Tabs
Bionic Tabs
Scream And Shout Tabs
Smoulder 1 Tabs
Suffocate Tabs
Suffocate 1 Tabs
We Are Heroes Tabs
Weather Tabs


Song lyrics



↑ Back to top | Tablatures and chords are parodies/interpretations of the original songs. You may use it for private study, scholarship, research or language learning purposes only
© 2014 AZChords.com Contact us | Privacy policy | DMCA | Add/correct tabs | Request tabs | Top 50 tabs