» » »

Bionic Tabs (ver.1)

Artists:  A B C D E F G H I J K L M N O P Q R S T U V W X Y Z # 

Bionic Tabs (ver.1)

King Adora
Rating:
0/5 (0 votes)
Tabs too difficult? Try these video lessons and learn fast.
                
Chords Used

A5:577xxx or xx022x
G5:355xxx
G#5:466xxx
D5:x577xx
C5:x355xx
E5:x799xx
F5:133xxx
Intro

E|------------------------------------------------------------------------|
B|------------------------------------------------------------------------|
G|-----------------7-7----------------------------------------------------|
D|---7-7-7-7--5-5--7-7----------------------------------------------------|x2
A|---7-7-7-7--5-5--5-5----------------------------------------------------|
E|---5-5-5-5--3-3---------------------------------------------------------|

E|------------------------------------------------------------------------|
B|--------------------------8-8-8-8---------------------------------------|
G|--9-9-9-9-9-9-9-9-5-5-5-5-----------------------------------------------|
D|------------------------------------------------------------------------|
A|------------------------------------------------------------------------|
E|------------------------------------------------------------------------|

Verse

(Bass Only)
I got to get me some love cos it gets me loved, 

I got to get me some ho like it gets me holed
                           C5                    E5
I'm your latest, your hero,I'm your heroin, your absolute zero

Got the wind on my back like the good frank black,

Got to get me some speed like the lord lou reed
       E|-------------------------------|
       B|-------------------------------|
       G|-------------------------------|
       D|-------------------------------|
       A|--6bu-6------------------------|
       E|-------6-7-7-------------------|

                                 C5                    E5
I'm your greatest, your hard on, I'm your Heroin, your absolute starf**k...
E|-----------------------------|
B|-----------------------------|
G|-----------------------------|
D|-----------------------------|
A|-6bu6------------------------|
E|-----6-8-8-7-----------------|


Chorus
   I'm Bionic, You're  Bionic
E|------------------------------------------------------------------------|
B|------------------------------------------------------------------------|
G|---------------------2-0-2-0--------------------------------------------|
D|--3-3-3---3--5-5-5-5-2-0-2-0--------------------------------------------| x2
A|--3-3-3---3--5-5-5-5-0-0-0-0--------------------------------------------|
E|--1-1-1-0-1--3-3-3-3----------------------------------------------------|

                     (so much )
  I'm Bionic, You're (and more), There's fire if you want it..
E|------------------------------------------------------------------------|
B|------------------------------------------------------------------------|
G|------------------------------------------------------------------------|
D|-3-3-3---3--5-5-5--6-6-6-6--------------7-7-7-7-7-6---------------------|
A|-3-3-3---3--5-5-5--6-6-6-6--------------7-7-7-7-7-6---------------------|
E|-1-1-1-0-1--3-3-3--4-4-4-4--------------5-5-5-5-5-4---------------------|

E|------------------------------------------------------------------------|
B|---10--10--10--10-------------------------------------------------------|
G|-12--12--12--12---------------------------------------------------------|
D|----------------------6-6--5-5------------------------------------------|
A|----------------------6-6--5-5------------------------------------------|
E|----------------------4-4--3-3------------------------------------------|

2nd Verse: Palm mute intro chords
Repeat Bridge and chorus then repeat intro

Break before solo (chord is gtr 1 + bend is gtr 2 - can play either)

E|------------------------------------------------------------------------|
B|----------6bu--------6bu------------------------------------------------|
G|--9-9----------9-9-------9-9--------------------------------------------|
D|--9-9----------9-9-------9-9--------------------------------------------|
A|--7-7----------7-7-------7-7--------------------------------------------|
E|------------------------------------------------------------------------|

Solo

E|------------------------------------------------------------------------|
B|------------------------------------------------------------------------|
G|-5-5-5-10-9-7--4bu-4---5-5-5-10-9-9----12bu12---------------------------|
D|--------------------2-------------------------9-------------------------|
A|------------------------------------------------------------------------|
E|------------------------------------------------------------------------|
(don't bend each note every time just repick the 1st bend)
E|-12bu-12bu-11bu-11bu-9bu-9bu-9bu-9bu-9bu-9bu-8-7------------------------| 
B|------------------------------------------------------------------------|  
G|------------------------------------------------------------------------|  
D|------------------------------------------------------------------------|  
A|------------------------------------------------------------------------|
E|------------------------------------------------------------------------|

Repeat chorus then end on:

E|------------------------------------------------------------------------|
B|--------6bu-------------------------------------------------------------|
G|------------------------------------------------------------------------|
D|---6-6-------5-5--------------------------------------------------------|
A|---6-6-------5-5--------------------------------------------------------|
E|---4-4-------3-3--------------------------------------------------------|
            
Tabs too difficult? Try these video lessons and learn fast.


comments powered by Disqus
↑ Back to top | Tablatures and chords are parodies/interpretations of the original songs. You may use it for private study, scholarship, research or language learning purposes only