>
 >
How He Loves

How He Loves Guitar Tabs

Kim Walker - How He Loves chords, tabs, tablatures, lyrics

Guitar lessons | Add/correct | Request | Top 50 tabs Artists:  A B C D E F G H I J K L M N O P Q R S T U V W X Y Z 0-9

How He Loves Guitar Tabs – Kim Walker

CD, Sheet music, Poster

Do you like How He Loves? Share with your friends now
ChordsChords v2Chords v3Chords v4Chords v5TabsUkulele
-----------------------------------------------------------------
How He Loves Us  Jesus Culture/Kim Walker
I Also Used Stephano12345  Chords When Making The Second Guitar Part.
And This Is Also My First Tab.
-----------------------------------------------------------------
Tuning:EADGBE


                     Guitar 1
Capo 6
   C
E|------------0-----------------------0-------|
B|-------1---------1-------------1---------1--|
G|---0-----------------------0----------------|2x
D|---2-----------------------2----------------|
A|---3-----------------------3----------------|
E|---3----------------------------------------|
     Am7
E|------------0-----------------------0-------|
B|-------1---------1-------------1---------1--|
G|---0-----------------------0----------------|2x
D|---2-----------------------2----------------|
A|---0-----------------------0----------------|
E|--------------------------------------------|
     G
E|------------3------------------------3------|
B|-------3---------3--------------3---------3-|
G|---0------------------------0---------------|2x
D|---0------------------------0---------------|
A|---2------------------------2---------------|
E|--------------------------------------------|
     Am7
E|------------0-----------------------0-------|
B|-------1---------1-------------1---------1--|
G|---0-----------------------0----------------|2x
D|---2-----------------------2----------------|
A|---0-----------------------0----------------|
E|--------------------------------------------|
^^ These Repeat Through Almost All Of The Song^^

Guitar 2
Capo 2

Chords

E	= 022100
Bsus4	= 024400
C#m7	= 046600
Asus2	=002200

VERSE 1

E
He is jealous for me
C#m7
Love's like a hurricane, I am a tree
Bsus4							   Asus2
Bending beneath the weight of His wind and mercy

E
When all of a sudden, I am unaware of these
 C#m7
Afflictions eclipsed by glory
      Bsus4
And I realize just how beautiful You are
	   Asus2
And how great your affections are for me.

CHORUS 1

    E			    C#m7
And oh, how He loves us so
           Bsus4
Oh, how He loves us
		      Asus2
How He loves us so.

Then The Little Guitar Solo
E|---------------------------------------------------------------|
B|---------------------------------------------------------------|
G|-9~8~1~-------9~8~1~-------9~8~~~9~~---------------------------|
D|---------------------------------------------------------------|
A|---------------------------------------------------------------|
E|---------------------------------------------------------------|

Verse 1

E
He is jealous for me
C#m7
Love's like a hurricane, I am a tree
Bsus4							   Asus2
Bending beneath the weight of His wind and mercy

E
When all of a sudden, I am unaware of these
 C#m7
Afflictions eclipsed by glory
      Bsus4
And I realize just how beautiful You are
	   Asus2
And how great your affections are for me.

CHORUS 1

    E			    C#m7
And oh, how He loves us so
           Bsus4
Oh, how He loves us
		      Asus2
How He loves us so.

Then The Little Guitar Solo Again
E|---------------------------------------------------------------|
B|---------------------------------------------------------------|
G|-9~8~1~-------9~8~1~-------9~8~~~9~~---------------------------|
D|---------------------------------------------------------------|
A|---------------------------------------------------------------|
E|---------------------------------------------------------------|


CHORUS 2
	    E
Yeah, He loves us
		   C#m7
Woah, how He loves us
		   Bsus4
Woah, how He loves us
		   Asus2
Woah, how He loves. 2x

VERSE 2

E
We are His portion and He is our prize,
C#m7
Drawn to redemption by the grace in His eyes
   Bsus4					 Asus2
If grace is an ocean we're all sinking ha ha

   E
So heaven meets earth like a sloppy wet kiss
	  C#m7
And my heart turns violently inside of my chest
  Bsus4
I don't have time to maintain these regrets
	  Asus2
When I think about the way

CHORUS 2
	    E
Yeah, He loves us
		   C#m7
Woah, how He loves us
		   Bsus4
Woah, how He loves us
		   Asus2
Woah, how He loves. 2x

Tremolo Picking Solo
E|---------------------------------------------------------------|
B|---------------------------------------------------------------|
G|---------------------------------------------------------------|
D|-6----4----6/7----6-----6----4----6/7----6----6----4----6/7----|
A|---------------------------------------------------------------|
E|---------------------------------------------------------------|

E|---------------------------------------------------------------|
B|---------------------------------------------------------------|
G|---------------------------------------------------------------|
D|-6/9-----------------------------------------------------------|
A|---------------------------------------------------------------|
E|---------------------------------------------------------------|
                          ^^Play This Solo Twice^^
CHORUS 2
	    E
Yeah, He loves us
		   C#m7
Woah, how He loves us
		   Bsus4
Woah, how He loves us
		   Asus2
Woah, how He loves.

CHORUS 3
	    E
Yeah, He loves us
    C#m7
He loves us
   Bsus4
He loves us
   Asus2
He loves.

Ending
E|-12-11-4-----12-11-4-7------12-11-4-7-----12-11-4b-------------|
B|---------------------------------------------------------------|
G|---------------------------------------------------------------|
D|---------------------------------------------------------------|
A|---------------------------------------------------------------|
E|---------------------------------------------------------------|

And Then She Start Talking

Tablature Notation

h - hammer on
p - pull off
b - bend string up
r - release bend
/ - slide up
\ - slide down
v - vibrato (or ~)
t - right hand tap
x - play 'note' with heavy muting





Comments


Popular Kim Walker tabs & chords
How He Loves Us Bass Tabs
Alive 1 Chords
I Have Found Chords
I Still Believe Chords
I Surrender 1 Chords
See His Love Chords
You Are My Passion Chords
You Wont Relent Intro Tabs
Pursuit Ukulele
See His Love Ukulele


Song lyrics



↑ Back to top | Tablatures and chords are parodies/interpretations of the original songs. You may use it for private study, scholarship, research or language learning purposes only
© 2014 AZChords.com Contact us | Privacy policy | DMCA | Add/correct tabs | Request tabs | Top 50 tabs