» » »

Kim Fransson, Three Floors Down Chords (ver.1)

Artists:  A B C D E F G H I J K L M N O P Q R S T U V W X Y Z # 

Three Floors Down Chords (ver.1)

Kim Fransson Tabs
Rating:
0/5 (0 votes)
Three Floors Down lessons Tabs too difficult? Try these video lessons and learn fast
                BPM: 110

pb = pre bend (whole step)
~    = Vibrato

Intro
F G |Am Am
F G |Am Am
F G |Am C
G G |G  G

Solo
e-----------------------------------------------------------------------|
B----------------8b--8-5~-------------------------------8b--8-5---------|
G----5-7-7pb-7-5-----------5--7-75----------5-7-7pb-7-5----------7~-----|
D--7------------------------------7~-----7------------------------------|
A-----------------------------------------------------------------------|
E-----------------------------------------------------------------------|

e-------------------------8b--8-5---------------------------------------|
B----------------8b--8-5~---------8~------------------------------------|
G----5-7-7pb-7-5--------------------------------------------------------|
D--7--------------------------------------------------------------------|
A-----------------------------------------------------------------------|
E-----------------------------------------------------------------------|

Verse 1

F            G      Am
Down in the hallway right of the street
 F                 G          Am
I bumped in to her asking what time she be free
         F          G         Am    C  G
She said Ive got a space in my diary tonight
F          G         Am
I've been working just like a slave
   F                G        Am
I jumped into the shower I'll change and I'll shave
          F              G
I send a message to her cell
        Am       C        G
Saying, now I'm on my way...  Ahaa


Chorus (With intro solo)

         F      G     Am
Shes only three floors down
        F           G          Am
And my puls is going up yeah I think I'll found
      F            G        Am            C   G
That Heavens below when ever she is around...

My baby's three floors down


Intro Solo

F G |Am Am
F G |Am Am

Verse 2

F        G        Am
What a waste just wondered around
    F        G             Am
         F          G          Am       C      G
She said, take your time but I feel homebound tonight, alright
F           G                  Am
I've got no interest in the games they play
F             G                Am
Gladly I would save them from a rainy day
      F              G           Am       C        G
Get into the elevator and singning now I'm on my way
Ahaaaa


Chorus (With intro solo)

         F      G     Am
Shes only three floors down
        F           G          Am
And my puls is going up yeah I think I'll found
      F            G        Am            C   G
That Heavens below when ever she is around...

My baby's three floors down

Interlude
  F             G          Am
I can't see the forest for all the trees
F             G       Am
Always on the run and haunt she please
F                    G             Am      C        G
I never thought that I would found love so close to me, to me

TONIGHT IM GOING THREE FLOORS DOWN!

Solo
F G |Am Am
F G |Am Am
F G |Am C
G G |G  G

Chorus (with intro solo)
         F      G     Am
Shes only three floors down
        F           G          Am
And my puls is going up yeah I think I'll found
      F            G        Am            C   G
That Heavens below when ever she is around...

I know she's waiting for me

Play chorus 'till the end
            
Submit corrections

comments powered by Disqus
↑ Back to top | Kim Fransson Chords for Three Floors Down. Lyrics for acoustic guitar and electric guitar. Tablatures and chords are parodies/interpretations of the original songs. You may use it for private study, scholarship, research or language learning purposes only