» » »

Man In The Moon Chords (ver.1)

Artists:  A B C D E F G H I J K L M N O P Q R S T U V W X Y Z # 

Man In The Moon Chords (ver.1)

Kim Fransson
Rating:
0/5 (0 votes)

Hard to play? Try these video lessons and learn fast.
                BPM: 125

Intro
D |D/C# |Bm |G
D |D/C# |Bm |Bb

Melody
e------------------------------------------------------------------|
B------------------------------------------------------------------|
G------------------------------------------------------------------|
D-------------------14--11-12----------------------14-141514--12---|
A---9-10-12-12---12----------------9-10-12-12--12------------------|
E------------------------------------------------------------------|

Verse 1
D                          Bm
Man in the moon I've gotta feeling
         G
You can see me, walking all alone
D            Bm               G
On my way to someone, who can free me
Expecting me to come

Bridge 1

Bm       G              D   D/C#
I've got worries on my mind
Bm              G
I brought some flowers
     D                  D/C#          D
And I picked them by the river by my own

Chorus

           D/C#             Bm
Man in the moon, man in the moon
      G               D
Don't leave me out of sight
           D/C#             Bm
Man in the moon, man in the moon
           G              D
Send your very special light
      D/C#           Em
Don't leave me on my own
G                        D
Guide me through the night
           D/C#              Bm
Man in the moon, man in the moon
G               Gm
This may be the moment in my life

Interlude

D |D/C# |Bm |Bb

Melody
e------------------------------------------------------------------|
B------------------------------------------------------------------|
G------------------------------------------------------------------|
D-------------------14--11-12--------------------------------------|
A---9-10-12-12---12------------------------------------------------|
E------------------------------------------------------------------|

Verse 2
D                          Bm               G
Passing the gate will be the biggest step I ever
Took and I don't know
D    Bm        G
Sure let me in forever
                           Bm
Or if she just wants me to go

Bridge 2

          G                D   D/C#
She's the light inside my goom
Bm             G
She's in every song I sing
D             D/C#
She's within every single tune

Chorus

           D/C#             Bm
Man in the moon, man in the moon
      G               D
Don't leave me out of sight
           D/C#             Bm
Man in the moon, man in the moon
           G              D
Send your very special light
      D/C#           Em
Don't leave me on my own
G                        D
Guide me through the night
           D/C#              Bm    Bb
Man in the moon, man in the moon

Eb         Eb/D             Cm
Man in the moon, man in the moon
       Ab               Eb
(Don't leave me out of sight)
        Eb/D             Cm
Man in the moon, man in the moon
           Ab            Eb
(Send your very special light)
      Eb/D           Fm
Don't leave me on my own
Ab                        Eb
Guide me through the night


Just repeat chorus till the end
            
Hard to play? Try these video lessons and learn fast. | Correct




comments powered by Disqus
↑ Back to top | Tablatures and chords are parodies/interpretations of the original songs. You may use it for private study, scholarship, research or language learning purposes only