>
 >
The End Of Heartache

The End Of Heartache Guitar Tabs

Killswitch Engage - The End Of Heartache chords, tabs, tablatures, lyrics

Guitar lessons | Add/correct | Request | Top 50 tabs Artists:  A B C D E F G H I J K L M N O P Q R S T U V W X Y Z 0-9

The End Of Heartache Guitar Tabs – Killswitch Engage

CD, Sheet music, Poster

Do you like The End Of Heartache? Share with your friends now
Bass TabsBass Tabs v2Bass Tabs v3Bass Tabs v4ChordsChords v2TabsUkuleleUkulele v2
Intro:
guitar 1:

D|--------------------------------------------------------|
A|-6p5--6p5--6p5--6p5--8p5------6p5--6p5--6p5--6p5--8p5---|
F|----5----5----5----5----5--------5----5----5----5----5--|
C|--------------------------------------------------------|
G|--------------------------------------------------------|
C|--------------------------------------------------------|

guitar 2:

D|--------------------------------------------------------|
A|--------------------------------------------------------|
F|--------------------------------------------------5-----|
C|-0------------------------------------------------5-----|
G|-0------------------------------------------------3-----|
C|-0------------------------------------------------------|

Verse 1:
guitar 1: (same as Intro)

guitar 2:

D|--------------------------------------------------------------------|
A|--------------------------------------------------------------------|
F|-----------------------10\9-5/7--------------------------10\9-5-----|
C|--------------------------------------------------------------------|
G|-0-0-0-0--0-0-0-0-0----8-\7-3/5----0-0-0-0--0-0-0-0-0----8-\7-3-----|
C|-0-0-0-0--0-0-0-0-0----------------0-0-0-0--0-0-0-0-0---------------|

D|--------------------------------------------------------------------|
A|--------------------------------------------------------------------|
F|-----------------------10\9-5/7-------------------------------------|
C|--------------------------------------------------------------------|
G|-8-8-8-8--8-8-8-8-8----8-\7-3/5----8-8-8-8--8-8-8-8-8----8/10-10----|
C|-8-8-8-8--8-8-8-8-8----------------8-8-8-8--8-8-8-8-8----8/10-10----|

Bridge 1:
guitar 1&2:

D|------------------------------------------------------------------------|
A|------------------------------------------------------------------------|
F|------------------------------------------------------------------------|
C|------------------------------------------------------------------------|
G|-0-0-0-0--0-0-0-0-0-0-0--0-0-0-0-0-0-0--0-0-0---------------------------|
C|-0-0-0-0--0-0-0-0-0-0-0--0-0-0-0-0-0-0--0-0-0-7h10p7h10p7-6h9p6h9p6-----|

D|------------------------------------------------------------------------|
A|------------------------------------------------------------------------|
F|------------------------------------------------------------------------|
C|------------------------------------------------------------------------|
G|-0-0-0-0--0-0-0-0-0-0-0--0-0-0-0-0-0-0--0-0-0-5h8p5h8p5-4h7p4h7p4-------|
C|-0-0-0-0--0-0-0-0-0-0-0--0-0-0-0-0-0-0--0-0-0---------------------------|

D|--------------|
A|--------------|
F|--------------|   2nd time
C|--------------|
G|-8/10-10-10---|
C|-8/10-10-10---|

Verse 2:
guitar 1:

D|--------------------------------------------------------------------|
A|--------------------------------------------------------------------|
F|-----------------------10\9-5/7--------------------------10\9-5-----|
C|--------------------------------------------------------------------|
G|-0-0-0-0--0-0-0-0-0----8-\7-3/5----0-0-0-0--0-0-0-0-0----8-\7-3-----|
C|-0-0-0-0--0-0-0-0-0----------------0-0-0-0--0-0-0-0-0---------------|

guitar 2:

D|--------------------------------------------------------------------|
A|--------------------------------------------------------------------|
F|-----------------------14\12-9/10------------------------14\12-9----|
C|--------------------------------------------------------------------|
G|-0-0-0-0--0-0-0-0-0----12\10-7/8---0-0-0-0--0-0-0-0-0----12\10-7----|
C|-0-0-0-0--0-0-0-0-0----------------0-0-0-0--0-0-0-0-0---------------|

D|---------------|
A|---------------|
F|---------------|   2nd time
C|---------------|
G|--8/10-10-10---|
C|--8/10-10-10---|

Bridge 1

Chorus:
guitar 1&2:

D|--------------------------------------------------|
A|-10-10-10-10-10-10-10-10-10-10-10-10-10-10-10-10--|
F|-10-10-10-10-10-10-10-10-10-10-10-10-10-10-10-10--|
C|-8--8--8--8--8--8--8--8--8--8--8--8--8--8--8--8---|
G|-8--8--8--8--8--8--8--8--8--8--8--8--8--8--8--8---|
C|-8--8--8--8--8--8--8--8--8--8--8--8--8--8--8--8---|

D|--------------------------------------------------|
A|-10-10-10-10-10-10-10-10-10-10-10-10-10-10-10-10--|
F|-10-10-10-10-10-10-10-10-10-10-10-10-10-10-10-10--|
C|-0--0--0--0--0--0--0--0--0--0--0--0--0--0--0--0---|
G|-0--0--0--0--0--0--0--0--0--0--0--0--0--0--0--0---|
C|-0--0--0--0--0--0--0--0--0--0--0--0--0--0--0--0---|

D|--------------------------------------------------|
A|--------------------------------------------------|
F|-12-12-12-12-12-12-12-12-12-12-12-12-12-14-12-9---|
C|-10-10-10-10-10-10-10-10-10-10-10-10-10-12-10-7---|
G|-10-10-10-10-10-10-10-10-10-10-10-10-10-12-10-7---|
C|-10-10-10-10-10-10-10-10-10-10-10-10-10-12-10-7---|

D|--------------------------------------------------|
A|-10-10-10-10-10-10-10-10-12-12-12-12-12-12-12-12--|
F|-10-10-10-10-10-10-10-10-12-12-12-12-12-12-12-12--|
C|-8--8--8--8--8--8--8--8--10-10-10-10-10-10-10-10--|
G|-8--8--8--8--8--8--8--8--10-10-10-10-10-10-10-10--|
C|-8--8--8--8--8--8--8--8--10-10-10-10-10-10-10-10--|

Interlude:
guitar 1: (same as verse)

guitar 2:

D|-------------------------------------------------------------------|
A|-------------------------------------------------------------------|
F|-------------------------------------------------------------------|
C|-0-0-10-0-8-0-10-0-8-0-7-0-8-0-7-0-5-0-7-0-5-0-3-0-5-0-3-0-2-0-3/5-|
G|-------------------------------------------------------------------|
C|-------------------------------------------------------------------|
  
D|-------------------------------------------------------------------|
A|-------------------------------------------------------------------|
F|---------------------------------------------------------------2*--|
C|-0-0-10-0-8-0-10-0-8-0-7-0-8-0-7-0-5-0-7-0-5-0-3-0-5-0-3-0-2-0-----|
G|-------------------------------------------------------------------|
C|-------------------------------------------------------------------|

Verse 2

Bridge 1

Chorus

Bridge 2:
guitar 1&2:

D|------------------------------------------------------|
A|------------------------------------------------------|
F|------------------------------------------------------|
C|------------------------------------------------------|
G|-----------------0--0-0-0--0-0-0-1--0-0-0-0-0-1-------|
C|-/5--0-5-0-3--0--0--0-0-0--0-0-0-1--0-0-0-0-0-1--0----|

D|------------------------------------------------------|
A|------------------------------------------------------|
F|------------------------------------------------------|
C|------------------------------------------------------|
G|-----------------0--0-0-0--0-0-0-1--0-0--0-0-0--------|
C|-/5--0-5-0-3--0--0--0-0-0--0-0-0-1--0-0--0-0-0--0-----|

D|-----|------|-----|
A|-----|------|-----|
F|--7--|--10--|--7--| during double-bass
C|-----|------|-----|
G|--5--|--8---|--5--|
C|-----|------|-----|

Clean:
guitar 1:

D|------------------------------------------------------------------|
A|---11--11--11--11--11--11--11--11--10--10--10--10--10--10--10--10-|
F|-10--10--10--10--10--10--10--10---7---7---7---7---7---7---7---7---|
C|------------------------------------------------------------------|
G|------------------------------------------------------------------|
C|------------------------------------------------------------------|

D|------------------------------------------------------------------|
A|--8---8---8---8---8---8---8---8----11--11--11--11--11--11--11--11-|
F|-5---5---5---5---5---5---5---5---10--10--10--10--10--10--10--10---|
C|------------------------------------------------------------------|
G|------------------------------------------------------------------|
C|------------------------------------------------------------------|

guitar 2: (chorus clean)

Chorus
guitar 2:

D|------|------|------|------|------|
A|--11--|--10--|--8---|--11--|--13--|
F|------|------|------|------|------| 
C|--8---|--7---|--5---|--8---|--10--|
G|------|------|------|------|------|
C|------|------|------|------|------|

Finish...





Comments


Popular Killswitch Engage tabs & chords
Always Bass Tabs
Element Of One 2 Tabs
Let The Bridges Burn Intro Tabs
Life To Lifeless 3 Tabs
My Curse 2 Tabs
One Last Sunset 1 Tabs
Self Revolution 2 Tabs
This Fire Burns 2 Tabs
Time Will Not Remain Tabs
Vide Infra Tabs


Song lyrics



↑ Back to top | Tablatures and chords are parodies/interpretations of the original songs. You may use it for private study, scholarship, research or language learning purposes only
© 2014 AZChords.com Contact us | Privacy policy | DMCA | Add/correct tabs | Request tabs | Top 50 tabs