» » »

Killjoys, Ungowa Baby Tabs (ver.1)

Artists:  A B C D E F G H I J K L M N O P Q R S T U V W X Y Z # 

Ungowa Baby Tabs (ver.1)

Killjoys Tabs
 Rating:
4/5 (4 votes)
Ungowa Baby lessons Tabs too difficult? Try these video lessons and learn fast
1
                -----UNGOWA, BABY!------|
-----THE KILLJOYS-------|
   -----STARRY----------|

Tuning..... Standard  E B G D A E

Intro
E--0---0-3----|-3--3------------|
B--0---0-3----|-3--3-2---2-2-2-o|
G--0---0-0----|-0--0-2---2-2-2--|
D--2---2-0----|-0--0-2---2-2-2--|
A--2---2-2----|-2--2-0---0-0-0-o|
E--0---0-3----|-3--3------------|

Chorus
E-----------|
B-4b-4-2-0--| E A      E        F#               A
G-----------| I said I might... what's it to ya? You don't need to cry.
D-----------| I said I would think about it, ungowa, baby! YEAH!
A-----------|
E-----------|

Interlude
D5 xx A5 xx E     F#           A
           It was just another night...

Bridge
E           A
Hey hey hey.

Solo
E-------------------------------|
B-------------------------------|
G---------2-4--4b--4b-4b-4-4-2--|
D-----2-4-----------------------|
A-2-4---------------------------|
E-------------------------------|
            
Submit corrections

comments powered by Disqus
↑ Back to top | Killjoys Tabs for Ungowa Baby. Lyrics for acoustic guitar and electric guitar. 1 Tablatures and chords are parodies/interpretations of the original songs. You may use it for private study, scholarship, research or language learning purposes only