>
 >
Rave And Drool

Rave And Drool Bass Tabs

Killjoys - Rave And Drool chords, tabs, tablatures, lyrics

Guitar lessons | Add/correct | Request | Top 50 tabs Artists:  A B C D E F G H I J K L M N O P Q R S T U V W X Y Z 0-9

Rave And Drool Bass Tabs – Killjoys

CD, Sheet music, Poster

Do you like Rave And Drool? Share with your friends now
Bass Tabs
~ = Let note ring
*
* = Repeat this measure

Intro: Guitar only.
 
First Verse:

G ------------------------------------------------------------------
D*------------------------------------------------------------------
A*5--5--5-5-5-0--0-0--0-0-0-2--2--2-2-2----------------5--5--5-5-5--
E ---------------------------------------3--3-3--3-3-3--------------

G ------------------------------------------------------------------ 
D ------------------------------------------------------------------*
A -0--0-0--0-0-0-5--5--5-5-5-0--0-0--0-0-0-2--2--2-2-2--------------* 
E -----------------------------------------------------3--3-3--3-3-3

G ------------------------------------------------------------------
D ------------------------------------------------------------------
A -5--5--5-5-5-0--0-0--0-0-0----------------------------------------
E ------------------------------------------------------------------


Bridge:

G ------------------------------------------------------------------
D ------------------------------------------------------------------
A -2--2--2-2-2---------------5--5--5-5-5--5--5-5--5-5-5-2--2--2-2-2-
E -------------3--3-3--3-3-3----------------------------------------

G ------------------------------------------------------------------
D ------------------------------------------------------------------
A ---------------5--5--5-5-5--4--4-4--4-4-4--2--2--2-2-2------------
E -3--3-3--3-3-3----------------------------------------------------

G ------------------------------------------------------------------
D ------------------------------------------------------------------
A ---------------5--5--5-5-5--5--5-5--5-5-5-2--2--2-2-2-------------
E -3--3-3--3-3-3----------------------------------------3--3--3-3-3-

G ------------------------------------------------------------------
D ------------------------------------------------------------------
A -5--5--5-5-5-4--4--4-4-4-2--2--2-2-2------------------------------
E ------------------------------------------------------------------

Chorus:

G ------------------------------------------------------------------
D ------------------------------------------------------------------
A -----------5~------2---0------------------------------------------x4
E -3~---------------------------------------------------------------

G ------------------------------------------------------------------
D ------------------------------------------------------------------
A -------0~---------------------------------------------------------
E -3--3-------------------------------------------------------------

Second Verse:

G ------------------------------------------------------------------
D ------------------------------------------------------------------
A -5--5--5-5-5-0--0-0--0-0-0-2--2--2-2-2----------------5--5--5-5-5-
E ----------------------------------------3--3-3--3-3-3-------------

G ------------------------------------------------------------------
D ------------------------------------------------------------------
A -0--0-0--0-0-0-5--5--5-5-5-0--0-0--0-0-0-2--2--2-2-2-------------- 
E -----------------------------------------------------3--3-3--3-3-3

G ------------------------------------------------------------------
D ------------------------------------------------------------------
A -5--5--5-5-5-0--0-0--0-0-0----------------------------------------
E ------------------------------------------------------------------

Bridge:

Chorus:

Third Verse: Same as second

Bridge:

Chorus:

Outro:

G -------------------------------------------------------------------
D -------------------------------------------------------------------
A -5--5--5-5-5-0--0-0--0-0-0-2--2--2-2-2---------------5--5--5-5-5---
E ---------------------------------------3--3-3--3-3-3---------------
								     x3
G -------------------------------------------------------------------
D -------------------------------------------------------------------
A -0--0-0--0-0-0-----------------------------------------------------
E -------------------------------------------------------------------

G -------------------------------------------------------------------
D -------------------------------------------------------------------
A -5--5--5-5-5-0--0-0--0-0-0-2--2--2-2-2---------------2-------------
E ---------------------------------------3--3-3--3-3-3---3-2---------





Comments


Popular Killjoys tabs & chords
If I Were You Chords
Rocketsleep Chords
Soaked Chords
Anyday Now Tabs
Monkeysucker Tabs
Someplace Tabs
Ungowa Baby Tabs
Candyland Ukulele
Dana Ukulele
Soaked Ukulele


Song lyrics



↑ Back to top | Tablatures and chords are parodies/interpretations of the original songs. You may use it for private study, scholarship, research or language learning purposes only
© 2014 AZChords.com Contact us | Privacy policy | DMCA | Add/correct tabs | Request tabs | Top 50 tabs