» » »

Killjoys, Headlong Tabs (ver.1)

Artists:  A B C D E F G H I J K L M N O P Q R S T U V W X Y Z # 

Headlong Tabs (ver.1)

Killjoys Tabs
 Rating:
4/5 (4 votes)
Headlong lessons Tabs too difficult? Try these video lessons and learn fast
1
                  -----HEADLONG-----
-----THE KILLJOYS-----
   -----STARRY-----

Tuning..... Standard  E B G D A E

Verse (these are my lyrics, not right at all)
E C#m                  B     A
    Stryrophome thrills, the next Bill Gates...

Chorus
E-------0-0-0-0----------------|
B-------0-0-0-0---------------*|
G-2-----1-1-1-1-4-4-4-2-2-2-2--|
D-2-----2-2-2-2-4-4-4-2-2-2-2--|
A-0-----2-2-2-2-2-2-2-0-0-0-0-*|
E---3-2-0-0-0-0----------------|
          I can't look up...

E----------------------------------|
B---------------------------------*|
G-----------------2-2-2-2-2-2-2-2--|
D-4-4-4-4-4-4-4-4-2-2-2-2-2-2-2-2--|
A-4-4-4-4-4-4-4-4-0-0-0-0-0-0-0-0-*|
E-2-2-2-2-2-2-2-2------------------|
  I can't wait...

Solo
E---------------|--------------|-----------------------|
B---------------|--------------|-----------------------|
G---------------|--------------|-----------------------|
D-------2--4--2-|---2--4--6--2-|-4--2--9----------4--2-|
A-2--4----------|-4------------|------------4--2-------|
E---------------|--------------|-----------------------|

E----------------------9-----9--9-12-9----9-|
B------------------12b---12b-----------12---|
G-------------------------------------------|
D-4--2--9-----------------------------------|
A------------4--2---------------------------|
E-------------------------------------------|

Ending
G A

Whoop de doo.
            
Submit corrections

comments powered by Disqus
↑ Back to top | Killjoys Tabs for Headlong. Lyrics for acoustic guitar and electric guitar. 1 Tablatures and chords are parodies/interpretations of the original songs. You may use it for private study, scholarship, research or language learning purposes only