» » »

Killing Heidi, You Don't Know Tabs (ver.1)

Artists:  A B C D E F G H I J K L M N O P Q R S T U V W X Y Z # 

You Don't Know Tabs (ver.1)

Killing Heidi Tabs
Rating:
0/5 (0 votes)
Hard to play? Try these video lessons and learn fast.
                Dropped D Tuning 
Intro/Verse 
e|---------------------|-----------------| 
B|---------------------|-----------------| 
G|---------------------|-----------------| 
D|---------------------|-----------------| 
A|-3h5-5-5-5-3h5-5-5-5-|-3h5-5-5-5-5-5-5-| 
D|-0-0-0-0-0-0-0-0-0-0-|-0-0-0-0-0-0-0-0-| 

Keyboard sample (during verse-transposed for guitar) 
e|--10-10-10-10-10-10-10-10-| 
B|--------------------------| 
G|--------------------------| 
D|--------------------------| 
A|--------------------------| 
D|--------------------------| 

Chorus 
e|------------------|------------------------|-----------------|-----------------| 
B|------------------|------------------------|-----------------|-----------------| 
G|------------------|------------------------|-----------------|-----------------| 
D|--7-7-7-7-7-7-7-7-|/10-10-10-10-10-10-10-10|-8-8-8-8-8-8-8-8-|/5-5-5-5-5-5-5-5-| 
A|--5-5-5-5-5-5-5-5-|/8--8--8--8--8--8--8--8-|-8-8-8-8-8-8-8-8-|/5-5-5-5-5-5-5-5-| 
D|--0-0-0-0-0-0-0-0-|-0--0--0--0--0--0--0--0-|-8-8-8-8-8-8-8-8-|/5-5-5-5-5-5-5-5-| 

Bridge 
e|-----------------------|-------------------| 
B|-----------------------|-------------------| 
G|-----------------------|-------------------| 
D|-----------------------|-------------------| 
A|--3---5---8---10-10-10-|--3---5---8--8-8-8-| 
D|--0---0---0---0--0--0--|--0---0---0--0-0-0-|(slower tempo) 

e|--------------------------|------------------------| 
B|--------------------------|------------------------| 
G|--------------------------|------------------------| 
D|--8--8--8--8--10-p8--8--0-|-5--5--5--5--7-p5--5--0-| 
A|--8--8--8--8--8---8--8--0-|-5--5--5--5--5--5--5--0-| 
D|--8--8--8--8---------8--0-|-5--5--5--5--------5--0-|

Outro 
e|---------------------|-----------------| 
B|---------------------|-----------------| 
G|---------------------|-----------------| 
D|---------------------|-----------------| 
A|-3h5-5-5-5-3h5-5-5-5-|-3h5-5-5-5-5-5-5-| 
D|-0-0-0-0-0-0-0-0-0-0-|-0-0-0-0-0-0-0-0-|

Song  
Structure
Intro
Verse
Chorus
Verse 
Chorus
BridgeSlow 
Bridge
Verse
Chorus
Outro (verse)
            

comments powered by Disqus
↑ Back to top | Killing Heidi Tabs for You Don't Know. Lyrics for acoustic guitar and electric guitar. Tablatures and chords are parodies/interpretations of the original songs. You may use it for private study, scholarship, research or language learning purposes only