» » »

Superman/Supergirl Tabs (ver.1)

Artists:  A B C D E F G H I J K L M N O P Q R S T U V W X Y Z # 

Superman/Supergirl Tabs (ver.1)

Killing Heidi
Rating:
0/5 (0 votes)

Hard to play? Try these video lessons and learn fast.
                Intro/Chorus 
|---------------| 
|---------------| 
|---------------| 
|--7----9----5--| 
|--7----9----5--| 
|--5----7----3--| 
Verse 
Guitar 1 Clean      Guitar 2 Distorted 
|--7--5--3----| |-----------------------| 
|--7--5--3----| |-----------------------| 
|--8--6--4----| |-----------------------| 
|--9--7--5----| |---9-9-----7-7-----5---| 
|--9--7--5----| |---9-9-----7-7-----5---| 
|--7--5--3----| |---7-7-----5-5-----3---| 

Chorus 
|---------------| 
|---------------| 
|---------------| 
|--7----9----5--| 
|--7----9----5--| 
|--5----7----3--| 
Verse 
Guitar 1 Clean      Guitar 2 Distorted 
|--7--5--3----| |-----------------------| 
|--7--5--3----| |-----------------------| 
|--8--6--4----| |-----------------------| 
|--9--7--5----| |---9-9-----7-7-----5---| 
|--9--7--5----| |---9-9-----7-7-----5---| 
|--7--5--3----| |---7-7-----5-5-----3---| 
Guitar one picks notes from bar chords. 
   Im not sure what they are yet though =) 

Awesome band live. I saw them at the big day out and
they kicked ass.
            
Hard to play? Try these video lessons and learn fast. | Correct




comments powered by Disqus
↑ Back to top | Tablatures and chords are parodies/interpretations of the original songs. You may use it for private study, scholarship, research or language learning purposes only