>
 >
Live Without It 2

Live Without It 2 Guitar Tabs

Killing Heidi - Live Without It 2 chords, tabs, tablatures, lyrics

Guitar lessons | Add/correct | Request | Top 50 tabs Artists:  A B C D E F G H I J K L M N O P Q R S T U V W X Y Z 0-9

Live Without It 2 Guitar Tabs – Killing Heidi

CD, Sheet music, Poster

Do you like Live Without It 2? Share with your friends now
TabsTabs v2Tabs v3
-------------------------------------------------------------------------------
                             LIVE WITHOUT IT - Killing Heidi
-------------------------------------------------------------------------------
Tuning: Standard
There are 4 main parts to this song. This tab is very similar to version 1 and 2 but improved.

INTRO/VERSE/OUTRO (clean)
   Cadd9        Dadd9        Dadd9/C#     Dadd9
e|---------------------------------------------------|x1 for intro, x2 per verse, x4 for outro
B|---3----3-------5----5-------5----5-------5----5---|
G|---0----0-------0----0-------0----0-------0----0---|
D|---------------------------------------------------|
A|-3----3---3---5----5---5---4----4---4---5----5---4-|
E|---------------------------------------------------|

PRE-CHORUS (Overdrive)
   C5           D5           C#Aug5       D5
e|---------------------------------------------------|x2 per pre-chorus
B|---------------------------------------------------|
G|-5-5--5-5-5---7-7--7-7-7---6-6--6-6-6---7-7--7-7-7-|
D|-5-5--5-5-5---7-7--7-7-7---7-7--7-7-7---7-7--7-7-7-|
A|-3-3--3-3-3---5-5--5-5-5---4-4--4-4-4---5-5--5-5-4-|
E|---------------------------------------------------|

CHORUS(Overdrive)
   A            G            Bb5          C5
e|---------------------------------------------------|x2 per chorus
B|-2-2--2-2-2----------------------------------------|
G|-2-2--2-2-2---0-0-0--0-0---3-3--3-3-3---5-5-5--5-5-|
D|-2-2--2-2-2---0-0-0--0-0---3-3--3-3-3---5-5-5--5-5-|
A|-0-0--0-0-0---2-2-2--2-2---1-1--1-3-3---3-3-3--3-3-|
E|--------------3-3-3--3-3---------------------------|

BRIDGE(Overdrive)
   D5           C#5  C5
e|--------------------------|x4
B|--------------------------|
G|-7-7--7-7-7---6-6--5-5-5--|
D|-7-7--7-7-7---7-7--5-5-5--|
A|-5-5--5-5-5---4-4--3-3-3--|
E|--------------------------|

LYRICS/ARRANGEMENT

    INTRO
    VERSE
You know that we can make things happen that
Is what you say when 'always' comes an'
    PRE-CHORUS
I feel what you don't feel, it's real an'
That is why we make them understand
    CHORUS
We'll show them we can live without it
We'll prove you get through without it.
    VERSE
I know about what goes on in there
But I know better not to sit and stare
    PRE-CHORUS
Too long at what makes me colour blind
You're like the sun, but you never shine!
    CHORUS
We'll show them we can live without it
We'll prove you get through without it
    CHORUS
We'll show them we can live without it
We'll prove you get through without it
    BRIDGE
But sometimes it feels so right it
Feels so right it feels so right
So right, so right, so right, so right, so right
    OUTRO(fade)

END





Comments


Popular Killing Heidi tabs & chords
Heaven Sent Chords
Mascara Chords
Astral Boy 2 Tabs
Black Sheep Tabs
Buttup Tabs
I Am 3 Tabs
Mascara Tabs
Mascara 1 Tabs
Heaven Sent Ukulele
Weir Ukulele


Song lyrics



↑ Back to top | Tablatures and chords are parodies/interpretations of the original songs. You may use it for private study, scholarship, research or language learning purposes only
© 2014 AZChords.com Contact us | Privacy policy | DMCA | Add/correct tabs | Request tabs | Top 50 tabs