>
 >
I Am 4

I Am 4 Guitar Tabs

Killing Heidi - I Am 4 chords, tabs, tablatures, lyrics

Guitar lessons | Add/correct | Request | Top 50 tabs Artists:  A B C D E F G H I J K L M N O P Q R S T U V W X Y Z 0-9

I Am 4 Guitar Tabs – Killing Heidi

CD, Sheet music, Poster

Do you like I Am 4? Share with your friends now
TabsTabs v2Tabs v3Tabs v4
I AM (acoustic) – Killing Heidi



Tuning: standard



Yo. This is a tab of the live acoustic version of this killer song – performed on the 
aussie talk show ‘the panel’. The tab was basically deduced from watching that footage on 


Intro: Acoustic guitar plays this while the bass does the main riff (which is some kind 
of C, D#, F arrangement)

(strum 16th notes up and down for 4 bars but mute the first down stroke of every bar)


           F       F

e|------x--13---x--13--------------------------------------------------------|
B|------x--13---x—-13--------------------------------------------------------|
G|------x--10---x--10--------------------------------------------------------|
D|---------------------------------------------------------------------------|
A|---------------------------------------------------------------------------|
E|---------------------------------------------------------------------------|



Main riffage:

	C	     C		 D#	   F
e|---------------------------------------------------------------------------|
B|---------------------------------------------------------------------------|
G|------x-5-5-5---- x-5-5-5--------8---------10-8----------------------------|
D|------3-5-5-5-----3-5-5-5--------8---------10-8----------------------------|
A|------3-3-3-3-----3-3-3-3--------6---------8--8----------------------------|
E|---------------------------------------------------------------------------|
	“yeah........yeah….yeah oh yeah………………............ah


B|---------------------------------------------------------------------------|
G|------xh5-5-5---- x-5-5-5--------6---------8--8----------------------------|
D|------3-5-5-5-----3-5-5-5--------8---------10-8----------------------------|
A|------3-3-3-3-----3-3-3-3--------8---------10-8----------------------------|
E|---------------------------------------------------------------------------|
	Haaaa		yeah


Verse riff:

e|---------------------------------------------------------------------------|
B|---------------------------------------------------------------------------|
G|------8-~----------------------------8-----------7~-------7----------------|
D|------10~----------------------------10----------8~-----8---8--------------|
A|---------------------------------------------------------------------------|
E|---------------------------------------------------------------------------|
	“I know, I know, I know, I know what you’d say     and



e|---------------------------------------------------------------------------|
B|---------------------------------------------8-----8-----------------------|
G|------8-~-----------------------8------------8-----10----------------------|
D|------10~--------------------10---10---------10----10----------------------|repeat
A|---------------------------------------------------------------------------|
E|---------------------------------------------------------------------------|
	I know, I know, I know, I know all the games	    you play… etc




Pre chorus riffage:

e|---------------------------------------------------------------------------|
B|---------------------------------------------------------------------------|
G|------8----10----8----10-------8------------7---8---7---8--7h8p7-----------|
D|---10---10----10---10------10-------------8---8---8---8----------8---------|
A|---------------------------------------------------------------------------|
E|---------------------------------------------------------------------------|
     “I feel it, 				its comin

e|---------------------------------------------------------------------------|
B|---------------------------10----------------------------------------------|
G|------8----10----8----10-------8------------7---8---7---8--7h8p7-----------|
D|---10---10----10---10---------------------8---8---8---8----------8---------|
A|---------------------------------------------------------------------------|
E|---------------------------------------------------------------------------|
     It’s here if				you want it


Chorus explosion:

        C	     C		 D#	   F
e|---------------------------------------------------------------------------|
B|---------------------------------------------------------------------------|
G|------xh5-5-5---- x-5-5-5--------8---------10-8----------------------------|
D|------3-5-5-5-----3-5-5-5--------8---------10-8----------------------------|x4
A|------3-3-3-3-----3-3-3-3--------6---------8--8----------------------------|
E|---------------------------------------------------------------------------|
	“I am			    out on my own… etc


little riff back into verse:

e|---------------------------------------------------------------------------|
B|---------------------------------------------------------------------------|
G|----8-~-------10p8---------------------------------------------------------|
D|----10~----10------10------------------------------------------------------|
A|---------------------------------------------------------------------------|
E|---------------------------------------------------------------------------|




Solo:

e|---------------------------------------------------------------------------|
B|-----------------------------------8~--------------------------------------|
G|--------8h10------8h10--------8h10----10p8-------------8h10—8b—8-----------|
D|---8h10------8h10--------8h10--------------10-----8h10-----------10-8-8h10-|
A|---------------------------------------------------------------------------|
E|---------------------------------------------------------------------------|



e|---------------------------------------------------------------------------|
B|-------------------------------------11----------10b-10~-------------------|
G|-------------10-10-8---------10-10-8----8~-------8-b-8-~--8-----------8----|
D|---8----8~-----------10-8h10----------------8h10------------10--8-------8~-|
A|-----11-----------------------------------------------------------11-------|
E|---------------------------------------------------------------------------|


e|---------------------------------------------------------------------------|
B|---------------------------------------------------------------------------|
G|----------------------8h10-----------------------8h10----------------------|x2
D|--8h10-8h10-8h10-8h10--------8h10-8h10-8h10-8h10---------------------------|
A|---------------------------------------------------------------------------|
E|---------------------------------------------------------------------------|
   “So close but you don’t know… it’s me but ya never gonna see who I am



then back to pre chorus riffage:

e|---------------------------------------------------------------------------|
B|---------------------------------------------------------------------------|
G|------8----10----8----10-------8------------7---8---7---8--7h8p7-----------|
D|---10---10----10---10------10-------------8---8---8---8----------8---------|
A|---------------------------------------------------------------------------|
E|---------------------------------------------------------------------------|
     “I feel it, 			its comin

e|---------------------------------------------------------------------------|
B|---------------------------10----------------------------------------------|
G|------8----10----8----10-------8------------7---8---7---8--7h8p7-----------|
D|---10---10----10---10---------------------8---8---8---8----------8---------|
A|---------------------------------------------------------------------------|
E|---------------------------------------------------------------------------|
     It’s here if			you want it


Then chorus



End on:

e|---------------------------------------------------------------------------|
B|---------------------------------------------------------------------------|
G|------5-x-5-x-5-x-5-x-55-3---5~--------------------------------------------|
D|------5-x-5-x-5-x-5-x-55-3---5~--------------------------------------------|
A|------3-x-3-x-3-x-3-x-33-3---3~--------------------------------------------|
E|---------------------------------------------------------------------------|



There you have it. This is my first tab and I couldn’t find tab for this anywhere so I 

LOVE&PEACE


************************************

| /   slide up
| \   slide down
| h   hammer-on
| p   pull-off
| ~   vibrato
| +   harmonic
| x   Mute note
| b   Bend
| pb  Pre-bend
| br  Bend release
| pbr Pre-bend release
| brb Bend release bend

************************************





Comments


Popular Killing Heidi tabs & chords
Black Sheep Bass Tabs
Weir Chords
Astral Boy 1 Tabs
Astral Boy 2 Tabs
Buttup Tabs
I Am 1 Tabs
Leave Me Alone Tabs
Live Without It Tabs
Outside Of Me Tabs
You Don't Know Tabs


Song lyrics



↑ Back to top | Tablatures and chords are parodies/interpretations of the original songs. You may use it for private study, scholarship, research or language learning purposes only
© 2014 AZChords.com Contact us | Privacy policy | DMCA | Add/correct tabs | Request tabs | Top 50 tabs