» » »

Class Celebrities Tabs (ver.1)

Artists:  A B C D E F G H I J K L M N O P Q R S T U V W X Y Z # 

Class Celebrities Tabs (ver.1)

Killing Heidi
Rating:
0/5 (0 votes)

Hard to play? Try these video lessons and learn fast.
                Dropped D Tuning 

Verse D5 A5 G5 A5 G5 A5 A#5 
|--------------------------------------------------------------------------- 
|--------------------------------------------------------------------------- 
|--------------------------------------------------------------------------- 
|------------12------------------7-7---5-5---7---5-5/7----8-8-8----------- 
|------------12---X14------------7-7---5-5---7---5-5/7----8-8-8------------- 
|------------12------------------7-7---5-5---7---5-5/7----8-8-8----------- 
This is how they play it live, but it sounds better with the D chord 
on the 5th fret on the next string up. Chorus E5 B5 C#5 A5 
|--------------------------------------------------------- 
|--------------------------------------------------------- 
|---9----------------------------------------------------- 
|---9-----------9----------11---------7--------------- 
|---7-----------9----------11---------7---------------- 
|---------------9----------11---------7---------------- 
(you can figure out the strumming) 
The Bridge is a few of the chorus chords with electronic stuff. 
At the end the chorus is repeated twice 
The first chorus is the same but the last chorus has different strumming 
Last Chorus 
|----------------------------------------------------------------------- 
|----------------------------------------------------------------------- 
|---9-9-9-9---------------------------------------------------------- 
|---9-9-9-9---9-9-9-9---11-11-11-11---7-7-7-7------------ 
|---7-7-7-7---9-9-9-9---11-11-11-11---7-7-7-7------------ 
|-------------9-9-9-9---11-11-11-11---7-7-7-7------------ End on E5
            
Hard to play? Try these video lessons and learn fast. | Correct




comments powered by Disqus
↑ Back to top | Tablatures and chords are parodies/interpretations of the original songs. You may use it for private study, scholarship, research or language learning purposes only