» » »

Killing Heidi, Astral Boy Tabs (ver.3)

Artists:  A B C D E F G H I J K L M N O P Q R S T U V W X Y Z # 

Astral Boy Tabs (ver.3)

Killing Heidi Tabs
 Rating:
4/5 (4 votes)
Astral Boy lessons Tabs too difficult? Try these video lessons and learn fast
                Astral Boy - Killing Heidi

INTRO/VERSE
									
|--------------|--------------|----------------|-------0------|
|--0-----0-----|--7-----7-----|--8-----8-----3-|-3------------|
|----5-----5---|----0-----0---|----0-----0-----|---0-----0----|
|--------------|--------------|----------------|--------------|
|--7---7-7---7-|--5---5-5---0-|--7---7-7---0-2-|-3---3-3---3--|
|--------------|--------------|----------------|--------------|


CHORUS
									     
|--------------|--------------|----------------|--------------|
|--1-----1-----|--3-----3-----|--2-----2-----2-|--3-----3-----|
|----0-----0---|----0-----0---|----0------0----|----0-----0---|
|--------------|--------------|----------------|--------------|
|--3---3-3---0-|--2---2-2---2-|--0---0-0-0-0-0-|--3---3-3---3-|
|--------------|--------------|----------------|--------------|


BRIDGE 1

|------------------|------------------|-------------|---------2-|
|--5---7-5-4---0---|--3---5-3-2---0---|-1-----1-----|-------0---|
|------------------|------------------|---0-----0---|-----2-----|
|------------------|------------------|-------------|---1-------|
|--7-7-----6-6---6-|--5-5-----4-4---4-|-3---3-3---3-|-2---------|
|------------------|------------------|-------------|-----------|

BRIDGE 2
				   
|-------------|-------------|
|--5-----5--7-|-3-----3-----|
|----0--------|---0-----0---|
|-------------|-------------|
|--7---7-7--9-|-5---5-5---5-|
|-------------|-------------|


Ending

|------|
|--3---|
|--0---|
|--2---|
|--3---|
|------|


Intro/Verse  x4
Chorus       x2
Verse        x2
Chorus       x2
Bridge 1     x1
Bridge 2     x2
Bridge 1     x1
Verse        x2
Chorus       x4
Ending       
            
Submit corrections

comments powered by Disqus
↑ Back to top | Killing Heidi Tabs for Astral Boy. Lyrics for acoustic guitar and electric guitar. Tablatures and chords are parodies/interpretations of the original songs. You may use it for private study, scholarship, research or language learning purposes only