» » »

Black Chic White Guy Tabs (ver.1)

Artists:  A B C D E F G H I J K L M N O P Q R S T U V W X Y Z # 

Black Chic White Guy Tabs (ver.1)

Kid Rock
Rating:
0/5 (0 votes)

Hard to play? Try these video lessons and learn fast.
                please rate this tab

e|-------2--2--------2--2-------2--2-------2-2----------|
B|-------3--3--------3--3-------3--3-------3-3----------|
G|-0h2---2--2--0h2---2--2-------0--0-------0-0----------|
D|-0---0-------0---0----------0----------0--------------|
A|------------------------0h3--------0h2----------------|
E|------------------------------------------------------|

e|-------2-2-------2-2----------------------------------|
B|-------3-3-------3-3----------------------------------|
G|-------0-0-------0-0----------------------------------|
D|-----0---------0--------------------------------------|
A|-0h3-------0h2----------------------------------------|
E|------------------------------------------------------|

Play all of this for the whole song continuously.

happy playing
Sharkticon
            
Hard to play? Try these video lessons and learn fast. | Correct




comments powered by Disqus
↑ Back to top | Tablatures and chords are parodies/interpretations of the original songs. You may use it for private study, scholarship, research or language learning purposes only