» » »

All Summer Long Tabs (ver.1)

Artists:  A B C D E F G H I J K L M N O P Q R S T U V W X Y Z # 

All Summer Long Tabs (ver.1)

Kid Rock
Rating:
4/5 (30 votes)

Tabs too difficult? Try these video lessons and learn fast.
                

|-13b-13-10h13p10-------------------------------------------------------|
|----------------13-10-13b---13-10----13----13----13----13--------------|
|----------------------------------12b---12b---12b---12b---12bp10----10-|
|-----------------------------------------------------------------12----|
|-----------------------------------------------------------------------|
|-----------------------------------------------------------------------|

---------------------------------------------------------|
---------------------------------------------------------|
-12b-10--10--12b-10--10--12b-10--10----------------------|
-------12----------12----------12----12-10---------------|
--------------------------------------------12p10--------|
-------------------------------------------------12p10s8-|


|------------------------------------------------10-----|
|----------------------------------------------10---13b-|
|---------12--12b-10--10----------------12-12b----------|
|---------12--------12---12p10----------12--------------|
|-10h11-12----------------------10h11-12----------------|
|-------------------------------------------------------|

|-10--13-----15-----13-----15-----13-----------15-13---13b-----------------|
|---13--13h15--13h15--13h15--13h15--13h15--13b-------15---15p13------------|
|-------------------------------------------------------------- 14-13-12p10|
|--------------------------------------------------------------------------|
|--------------------------------------------------------------------------|
|--------------------------------------------------------------------------|


|-------------------------------------------------|
|-------------------------------------------------|
|-14b-14--12b-12--12-12-14b-12-----------------12-|
|-------------------------------------12-12h14----|
|-------------------------------------------------|
|-------------------------------------------------|

|--------------------------------------------------|
|-------------------------15---15-15b--15----------|
|-14b-14----12b-12-----14b--14b-----------14bp12---|
|--------------------------------------------------|
|--------------------------------------------------|
|--------------------------------------------------|



enjoy
            
Tabs too difficult? Try these video lessons and learn fast.




comments powered by Disqus
↑ Back to top | Tablatures and chords are parodies/interpretations of the original songs. You may use it for private study, scholarship, research or language learning purposes only