» » »

Zuko's Back In Town Tabs (ver.1)

Artists:  A B C D E F G H I J K L M N O P Q R S T U V W X Y Z # 

Zuko's Back In Town Tabs (ver.1)

Kid Dynamite
Rating:
0/5 (0 votes)

Hard to play? Try these video lessons and learn fast.
                 

-------------------------------------------------------------------------------
-------------------------------------------------------------------------------


Intro
e|-----------------------5---------------------------------------------------|
B|-----------------------5---------------------------------------------------|
G|--4-----7--2--4-----7--2--4-----7--2---------------------------------------|
D|--4--5--7--2--4--5--7--2--4--5--7--2---------------------------------------|
A|--2--5--5--0--2--5--5--0--2--5--5--0---------------------------------------|
E|-----3-----------3-----------3---------------------------------------------|

Verse
e|---------------------------------------------------------------------------|
B|---------------------------------------------------------------------------|
G|--9--6--4--2-----2--6--4---------------------------------------------------|
D|--9--6--4--2--4--2--6--4---------------------------------------------------|
A|--7--4--2--0--4--0--4--2---------------------------------------------------|
E|--------------2------------------------------------------------------------|

Chorus
e|-----------------------------------------------------------9---------------|
B|-Palm Mute-------------------------------------------------9---------------|
G|-----------4------------------------------5----------------9---------------|
D|--6--7--2--4--3 times then--4----------5--5---End song on--9---------------|
A|--6--7--2--2----------------4-slide to-5--2----------------7---------------|
E|--4--5--0-------------------2----------3-----------------------------------|
            
Hard to play? Try these video lessons and learn fast. | Correct




comments powered by Disqus
↑ Back to top | Tablatures and chords are parodies/interpretations of the original songs. You may use it for private study, scholarship, research or language learning purposes only