» » »

Kid Dynamite, Table 1 Tabs (ver.1)

Artists:  A B C D E F G H I J K L M N O P Q R S T U V W X Y Z # 

Table 1 Tabs (ver.1)

Kid Dynamite Tabs
 Rating:
4/5 (4 votes)
Table 1 lessons Tabs too difficult? Try these video lessons and learn fast
1
                "(9)
-------------------------------------------------------------------------------
-------------------------------------------------------------------------------


Intro
e|---------------------------------------------------------------------------|
B|---------------------------------------------------------------------------|
G|----4-----7-----9--9--11---palm mute 2nd time------------------------------|
D|-2--4--4--7--7--9--x--x----------------------------------------------------|
A|-2--2--4--5--7--7--7--9----------------------------------------------------|
E|-0-----2-----5-------------------------------------------------------------|

Verse
e|---------------------------------------------------------------------------|
B|---------------------------------------------------------------------------|
G|--4-----7-----9------4-----7-----9--4-----7--------------------------------|
D|--4--4--7--7--9--2---4--4--7--7--x--4--4--7--7--2-------------and then it--|
A|--2--4--5--7--7--2---2--4--5--7--7--2--4--5--7--2<-palm mute--sorta just --|
E|-----2-----5-----0------2-----5--------2-----5--0-------------repeats------|

Chorus:
e|---------------------------------------------------------------------------|
B|---------------------------------------------------------------------------|
G|-----4---------------------------------------------------------------------|
D|--4--4--6-----------7--2---------------------------------------------------|
A|--4--2--6--slide to-7--2---------------------------------------------------|
E|--2-----4-----------5--0---------------------------------------------------|

thing before change:
e|---------------------------------------------------------------------------|
B|---------------------------------------------------------------------------|
G|--4--------------------4---------------------------------------------------|
D|--4--4--7--2--------4--4---then right into the change ---------------------|
A|--2--4--7--2<-mute--4--2---------------------------------------------------|
E|-----2--5--0--------2------------------------------------------------------|
"            
Submit corrections

comments powered by Disqus
↑ Back to top | Kid Dynamite Tabs for Table 1. Lyrics for acoustic guitar and electric guitar. 1 Tablatures and chords are parodies/interpretations of the original songs. You may use it for private study, scholarship, research or language learning purposes only