» » »

Shiner Tabs (ver.1)

Artists:  A B C D E F G H I J K L M N O P Q R S T U V W X Y Z # 

Shiner Tabs (ver.1)

Kid Dynamite
Rating:
0/5 (0 votes)

Hard to play? Try these video lessons and learn fast.
                  
-------------------------------------------------------------------------------
-------------------------------------------------------------------------------


Intro
e|---------------------------------------------------------------------------|
B|----Mute-------------------------------------------------------------------|
G|--2--4--6--9--5------------------------------------------------------------|
D|--2--4--6--9--5--5---------------------------------------------------------|
A|--0--2--4--7--3--5---------------------------------------------------------|
E|-----------------3---------------------------------------------------------|

Verse
e|---------------------------------------------------------------------------|
B|---------------------------------------------------------------------------|
G|--9--5-----------------------4--6--7--9--7--6--2---------------------------|
D|--9--5--5--------------------4--6--7--9--7--6--0--5------------------------|
A|--7--3--5--twice once muted--2--4--5--7--5--4--0--5------------------------|
E|--------3-----------------------------------------3------------------------|

Chorus
e|---------------------------------------------------------------------------|
B|---------------------------------------------------------------------------|
G|------------------------7--------------------------------------------------|
D|--9--7--5--at end go to 7--------------------------------------------------|
A|--9--7--5---------------5--------------------------------------------------|
E|--7--5--3------------------------------------------------------------------|

End
e|---------------------------------------------------------------------------|
B|---------------------------------------------------------------------------|
G|--7--4-----------7--4-----------7------------------------------------------|
D|--7--4--5--9--7--7--4--5--4--2--7------------------------------------------|
A|--5--2--5--9--7--5--2--5--4--2--5------------------------------------------|
E|--------3--7--5--------3--2--0---------------------------------------------|

Very End
e|---------------------------------------------------------------------------|
B|---------------------------------------------------------------------------|
G|-------------------------------7-------------------------------------------|
D|--5--4--2----------------------7-------------------------------------------|
A|--5--4--2--# times then end on 5-------------------------------------------|
E|--3--2--0------------------------------------------------------------------|
            
Hard to play? Try these video lessons and learn fast. | Correct




comments powered by Disqus
↑ Back to top | Tablatures and chords are parodies/interpretations of the original songs. You may use it for private study, scholarship, research or language learning purposes only