» » »

Kid Dynamite, Pacifier Tabs (ver.1)

Artists:  A B C D E F G H I J K L M N O P Q R S T U V W X Y Z # 

Pacifier Tabs (ver.1)

Kid Dynamite Tabs
Rating:
0/5 (0 votes)
Hard to play? Try these video lessons and learn fast.
                Kid Dynamite

Standard Tuning, Approximate rhythm, you can figure out the timing

Intro / Chorus

e|---------------------------------|
B|---------------------------------|
G|---------2-2-2-2---------2-2-4-4-|
D|-2-2-2-2-2-2-2-2-4-4-4-4-2-2-4-4-| x2
A|-2-2-2-2-0-0-0-0-4-4-4-4-0-0-2-2-|
E|-0-0-0-0---------2-2-2-2---------|

e|------------------------------------|
B|------------------------------------|
G|-9-99-14/13-11/9--6-66-6/8-4-444444-|
D|------------------------------------|
A|-7-77-12/11-9-/7--4-44-4/6-2-222222-|
E|------------------------------------|


Pre-Verse
e|--------|------|
B|--------|------|
G|-2-4--9-|--6-4-|
D|-2-4--9-|--6-4-|
A|-0-2--7-|--4-2-|
E|--------|------|

Verse

e|----------------------|------------------------|----------------------|------------------------|
B|----------------------|------------------------|----------------------|------------------------|
G|----------------------|--------6---------------|----------------------|--------6---------------|
D|----------------------|-44-444-6-77-777-77-777-|----------------------|-44-444-6-77-777-99-999-|
A|-22-222-22-222-22-222-|-44-444-4-77-777-77-777-|-22-222-22-222-22-222-|-44-444-4-77-777-99-999-|
E|-00-000-00-000-00-000-|-22-222---55-555-55-555-|-00-000-00-000-00-000-|-22-222---55-555-77-777-|
PM|--------------------|                          |--------------------|


Pre-Chorus
                   x3
e|-------------------|----------------|-----------------------------------|
B|-------------------|----------------|-----------------------------------|
G|-11-11-----9-9-9-9-|----------------|-------------------------------2-4-|
D|-11-11-7-7-9-9-9-9-|-66-666-66-22-2-|-2-----------------------------2-4-|
A|-9--9--7-7-7-7-7-7-|-44-444-44-00-2-|-2-(let ring, then pick slide)-0-2-|
E|-------5-5---------|--------------0-|-0---------------------------------|

Chorus
Pre-verse
Verse
Pre-chorus
Chorus

End on

e|--------|
B|--------|
G|-2-4--9-|
D|-2-4--9-|
A|-0-2--7-|
E|--------|
            

comments powered by Disqus
↑ Back to top | Kid Dynamite Tabs for Pacifier. Lyrics for acoustic guitar and electric guitar. Tablatures and chords are parodies/interpretations of the original songs. You may use it for private study, scholarship, research or language learning purposes only