» » »

Pacificer Tabs (ver.1)

Artists:  A B C D E F G H I J K L M N O P Q R S T U V W X Y Z # 

Pacificer Tabs (ver.1)

Kid Dynamite
Rating:
3/5 (1 vote)

Hard to play? Try these video lessons and learn fast.
                -------------------------------------------------------------------------------
                               PACIFIER - Kid Dynamite          
-------------------------------------------------------------------------------


Intro
e|---------------------------------5-4-2-0-----------------------------------|
B|-------------------------5-5-5-5---------2-4-------------------------------|
G|---------------------------------------------4-----------------------------|
D|--2--7--4--7--9---------------------------------7--9--2--------------------|
A|--2--7--4--7--9--Twice--------------------------7--9--2--------------------|
E|--0--5--2--5--7---------------------------------5--7--0--------------------|

Verse
e|---------------------------------------------------------------------------|
B|---------------------------------------------------------------------------|
G|---------------------------------------------------------------------------|
D|--7--4--2-------4--7-------------------------------------------------------|
A|--7--4--2<-Mute-4--7--4 times----------------------------------------------|
E|--5--2--0-------2--5-------------------------------------------------------|

Chorus
e|---------------------------------------------------------------------------|
B|---------------------------------------------------------------------------|
G|-11-----9------------------------------------------------------------------|
D|-11--7--9--3 times then--11--9--2--7--7------------------------------------|
A|--9--7--7----------------11--9--2--7--7--Then its goes to the intro Chords-|
E|-----5--------------------9--7--0--5--9------------------------------------|
            
Hard to play? Try these video lessons and learn fast. | Correct




comments powered by Disqus
↑ Back to top | Tablatures and chords are parodies/interpretations of the original songs. You may use it for private study, scholarship, research or language learning purposes only