» » »

Kid Dynamite, Never Met The Gooch Tabs (ver.1)

Artists:  A B C D E F G H I J K L M N O P Q R S T U V W X Y Z # 

Never Met The Gooch Tabs (ver.1)

Kid Dynamite Tabs
 Rating:
3.4/5 (5 votes)
Never Met The Gooch lessons Tabs too difficult? Try these video lessons and learn fast
1
                E|--------------------------------|
B|--------------------------------|
G|-----7-------8-------7-------8--|
D|-9---7---4---8---9---7---4---8--|
A|-9---5---4---6---9---5---4---6--|
e|-7-------2-------7-------2------|

E|------------------------------------------------|
B|------------------------------------------------|
G|------------------------------------------------|
D|-7-7-7---7-7-7---9-9-9---9-9-9---7-7-7---7-7-7--|
A|-7-7-7---7-7-7---9-9-9---9-9-9---7-7-7---7-7-7--|
e|-5-5-5---5-5-5---7-7-7---7-7-7---5-5-5---5-5-5--|
   . .     . .     . .     . .     . .     . .

E|----------|
B|----------|
G|-6-4-3-4--|
D|-6-4-3-4--|
A|-4-2-1-2--|
e|----------|


E|----------------|
B|----------------|
G|-----7-------8--|
D|-9---7---4---8--|
A|-9---5---4---6--|
e|-7-------2------|


E|----------------------------|
B|----------------------------|
G|------------------9--7-6-7--|
D|-7-7-7-7-7-7-7-7--9--7-6-7--|
A|-7-7-7-7-7-7-7-7--7--5-4-5--|
e|-5-5-5-5-5-5-5-5------------|

E|------------------------------|
B|------------------------------|
G|------------------------------|
D|-7--5---9--12---7--5---9--12--|
A|-7--5---9--12---7--5---9--12--|
e|-5--3---7--10---5--3---7--10--|



E|-------------------------------|
B|-------------------------------|
G|-9-----7-6-7-9-----------------|
D|-9-----0-0-0-0-----------------|
A|-------------------------------|
e|-----------------5--3---7--10--|


E|----------------------------------------|
B|----------------------------------------|
G|--------------------------99999999999---|
D|-7-7-7-7-x-x-x-x-7-7-7-7--99999999999---|
A|-7-7-7-7-x-x-x-x-7-7-7-7----------------|
e|-5-5-5-5-x-x-x-x-5-5-5-5----------------|


E|--------------------------------|
B|--------------------------------|
G|-----7-------8-------7-------8--|
D|-9---7---4---8---9---7---4---8--|
A|-9---5---4---6---9---5---4---6--|
e|-7-------2-------7-------2------|

E|------------------------------------------------|
B|------------------------------------------------|
G|------------------------------------------------|
D|-7-7-7---7-7-7---9-9-9---9-9-9---7-7-7---7-7-7--|
A|-7-7-7---7-7-7---9-9-9---9-9-9---7-7-7---7-7-7--|
e|-5-5-5---5-5-5---7-7-7---7-7-7---5-5-5---5-5-5--|
   . .     . .     . .     . .     . .     . .

E|----------|
B|----------|
G|-6-4-3-4--|
D|-6-4-3-4--|
A|-4-2-1-2--|
e|----------|


E|----------------|
B|----------------|
G|-----7-------8--|
D|-9---7---4---8--|
A|-9---5---4---6--|
e|-7-------2------|


E|----------------------------|
B|----------------------------|
G|------------------9--7-6-7--|
D|-7-7-7-7-7-7-7-7--9--7-6-7--|
A|-7-7-7-7-7-7-7-7--7--5-4-5--|
e|-5-5-5-5-5-5-5-5------------|

E|------------------------------|
B|------------------------------|
G|------------------------------|
D|-7--5---9--12---7--5---9--12--|
A|-7--5---9--12---7--5---9--12--|
e|-5--3---7--10---5--3---7--10--|



E|-------------------------------|
B|-------------------------------|
G|-9-----7-6-7-9-----------------|
D|-9-----0-0-0-0-----------------|
A|-------------------------------|
e|-----------------5--3---7--10--|


E|----------------------------------------|
B|----------------------------------------|
G|--------------------------99999999999---|
D|-7-7-7-7-x-x-x-x-7-7-7-7--99999999999-9--|
A|-7-7-7-7-x-x-x-x-7-7-7-7--------------9--|
e|-5-5-5-5-x-x-x-x-5-5-5-5--------------7--|


E|-----------------------------------------|
B|-----------------------------------------|
G|-99-99-99-99-9-8-999-99-99-99-999999999--|
D|-99-99-99-99-9-8-999-99-99-99-999999999--|
A|-----------------------------------------|
e|-----------------------------------------|


E|-------------------------|
B|-------------------------|
G|----7-----9-----7-----9--|
D|-7--7--9--9--7--7--9--9--|
A|-7--5--9--7--7--5--9--7--|
e|-5-----7-----5-----7-----|


E|----------------------|
B|----------------------|
G|----7-----9-----7-----|
D|-7--7--9--9--7--7--9--|
A|-7--5--9--7--7--5--9--|
e|-5-----7-----5-----7--|


E|----------------|
B|----------------|
G|-9-----7--------|
D|-9-9-7-7-7-9-7--|
A|-7-9-7-5-7-9-7--|
e|---7-5---5-7-5--|
            
Submit corrections

comments powered by Disqus
↑ Back to top | Kid Dynamite Tabs for Never Met The Gooch. Lyrics for acoustic guitar and electric guitar. 1 Tablatures and chords are parodies/interpretations of the original songs. You may use it for private study, scholarship, research or language learning purposes only