>
 >
K05-0564

K05-0564 Guitar Tabs

Kid Dynamite - K05-0564 chords, tabs, tablatures, lyrics

Guitar lessons | Add/correct | Request | Top 50 tabs Artists:  A B C D E F G H I J K L M N O P Q R S T U V W X Y Z 0-9

K05-0564 Guitar Tabs – Kid Dynamite

CD, Sheet music, Poster

Do you like K05-0564? Share with your friends now
Tabs
-------------------------------------------------------------------------------
-------------------------------------------------------------------------------


Intro
e|---------------------------------------------------------------------------|
B|---------------------------------------------------------------------------|
G|--------66------66------66------66-----------------------------------------|
D|-----777-----777-----777-----777-------------------------------------------|
A|--777-----555-----000------------------------------------------------------|
E|--------------------------777----------------------------------------------|

Verse
e|---------------------------------------------------------------------------|
B|---------------------------------------------------------------------------|
G|--7----------9---------9--7--2--4------------------------------------------|
D|--7-slide to-9---Then--9--7--2--4------------------------------------------|
A|--5----------7---------7--5--0--2------------------------------------------|
E|---------------------------------------------------------------------------|

Chorus
e|---------------------------------------------------------------------------|
B|---------------------------------------------------------------------------|
G|--6-----7---------------------------------7-----------6---6-7--------=-----|
D|--6--7--7--2---------4 times-then---7--2--7--7--------6-7-6-7--------=-----|
A|--4--7--5--2<-Mute------------------7--2--5--7<-mute--4-7-4-5--------------|
E|-----5-----0------------------------5--0-----5----------5------------------|

End
e|---------------------------------------------------------------------------|
B|---------------------------------------------------------------------------|
G|--9--7--2--6---6-7---6-9---------------------------------------------------|
D|--9--7--2--6-7-6-7-7-6-9---------------------------------------------------|
A|--7--5--0--4-7-4-5-7-4-7---------------------------------------------------|
E|-------------5-----5-------------------------------------------------------|





Comments


Popular Kid Dynamite tabs & chords
Cheap Shot Youth Anthem Bass Tabs
Got A Minute? Bass Tabs
Pause Bass Tabs
Bench Warmer Tabs
Birthday Tabs
Death And Taxes Tabs
Heart A Tact Tabs
Ph Control Tabs
Rid Of The Losers, Bring On The Cruisers Tabs
Table 19 Tabs


Song lyrics



↑ Back to top | Tablatures and chords are parodies/interpretations of the original songs. You may use it for private study, scholarship, research or language learning purposes only
© 2014 AZChords.com Contact us | Privacy policy | DMCA | Add/correct tabs | Request tabs | Top 50 tabs