» » »

Got A Minute? Bass tabs (ver.1)

Artists:  A B C D E F G H I J K L M N O P Q R S T U V W X Y Z # 

Got A Minute? Bass tabs (ver.1)

Kid Dynamite
Rating:
0/5 (0 votes)

Hard to play? Try these video lessons and learn fast.
                Verse Part 1 
G|---------------------------------------------------------------------------| 
D|---------------------------------------------------------------------------| 
A|--------235-555555-7777-99105-5555-57535-----------------------------------| 
E|-333333--------------------------------------------------------------------| 

Verse Part 2 
G|---------------------------------------------------------------------------| 
D|------------------5--------------------------------------------------------| 
A|--------235-555555-5--------5555-57535-------------------------------------| 
E|-333333--------------000000------------------------------------------------| 

Chorus Part 1 2x 
G|---------------------------------------------------------------------------| 
D|---------------------------------------------------------------------------| 
A|---------55-3333333---------55-333-5-5-------------------------------------| 
E|-3333-00------------3333-00-------------3-3-3------------------------------| 

Chorus Part 2 
G|---------------------------------------------------------------------------| 
D|--------------------------------222222-------------------------------------| 
A|---------------------5--------------------------------5--------------------| 
E|-0000-22-333333-0000---2-333333--------22-333333-0000---2-333333-----------| 

Repeat Verse Part 1 and 2 
            
Hard to play? Try these video lessons and learn fast. | Correct




comments powered by Disqus
↑ Back to top | Tablatures and chords are parodies/interpretations of the original songs. You may use it for private study, scholarship, research or language learning purposes only