» » »

Kid Dynamite, Death And Taxes Tabs (ver.1)

Artists:  A B C D E F G H I J K L M N O P Q R S T U V W X Y Z # 

Death And Taxes Tabs (ver.1)

Kid Dynamite Tabs
 Rating:
4/5 (4 votes)
Death And Taxes lessons Tabs too difficult? Try these video lessons and learn fast
                -------------------------------------------------------------------------------
-------------------------------------------------------------------------------




Intro:
e|---------------------------------------------------------------------------|
B|---------------------------------------------------------------------------|
G|-7----------11--9--2-------------------------------------------------------|
D|-7-4 times--11--9--2-------------------------------------------------------|
A|-5-----------9--7--0-------------------------------------------------------|
E|---------------------------------------------------------------------------|

Verse: 
e|---------------------------------------------------------------------------|
B|---------------------------------------------------------------------------|
G|--2---6---7----------------------------------------------------------------|
D|--2---6---7----------------------------------------------------------------|
A|--0---4---5----------------------------------------------------------------|
E|---------------------------------------------------------------------------|

Chorus thing:
e|---------------------------------------------------------------------------|
B|---played-3-times----------------------------------------------------------|
G|---------------6--------------------------------6--4-Second time the chorus|
D|--2------------6---7-------------4----------5---4--2-plays you don't play  |
A|--2-palm mute--4---7------then---4-7 times--5--------the last three chords,|
E|--0----------------5-------------2----------3--------you play the intro----|

Quick part before change:
e|---------------------------------------------------------------------------|
B|---------------------------------------------------------------------------|
G|--------------2------------------------------------------------------------|
D|--2---6---2---2------------------------------------------------------------|
A|--2---6---2---0------------------------------------------------------------|
E|--0---4---0----------------------------------------------------------------|

Change:
e|---------------------------------------------------------------------------|
B|---------------------------------------------------------------------------|
G|-11--------------------4-----------9---------------------------------------|
D|-11-11----------9---2--4--4--6--7--9---------------------------------------|
A|--9-11-slide to-9---2--2--4--6--7--7---------------------------------------|
E|-----9----------7---0-----2--4--5------------------------------------------|

End part:
e|---------------------------------------------------------------------------|
B|---------------------------------------------------------------------------|
G|-11---------------------9--11-----------------------9----------------------|
D|-11--9--7--2---4--6--7--x--11--9--7--6--5--4--6--7--x--9-------------------|
A|--9--9--7--2---4--6--7--7---9--9--7--6--5--4--6--7--7--9-------------------|
E|-----7--5--0---2--4--5---------7--5--4--3--2--4--5-----7-------------------|
            
Submit corrections

comments powered by Disqus
↑ Back to top | Kid Dynamite Tabs for Death And Taxes. Lyrics for acoustic guitar and electric guitar. Tablatures and chords are parodies/interpretations of the original songs. You may use it for private study, scholarship, research or language learning purposes only