» » »

Cheap Shot Youth Anthem Tabs (ver.1)

Artists:  A B C D E F G H I J K L M N O P Q R S T U V W X Y Z # 

Cheap Shot Youth Anthem Tabs (ver.1)

Kid Dynamite
Rating:
5/5 (1 vote)

Tabs too difficult? Try these video lessons and learn fast.
                e|--------------------------|
B|--------------------------|
G|--7-7-7-------------------|  play 3 times
D|--7-7-7--7-7-7------------|
A|--5-5-5--7-7-7------------|
E|---------5-5-5------------|

e|---------------|
B|---------------| play 3 times
G|---------------|
D|---5-5-5-------|
A|---5-5-5-------|
E|---3-3-3-------|

e|------------------------------------------|
B|------------------------------------------|
G|------------------------------------------|
D|---7-7-7---9-9-9-9--12-12-12--7-7-7-7-----|
A|---7-7-7---9-9-9-9--12-12-12--7-7-7-7-----|
E|---5-5-5---7-7-7-7--10-10-10--5-5-5-5-----|

e|-------------------------------|
B|-------------------------------|
G|------------9-9-9--12----------|
D|---7-7-7----9-9-9--12---7*-----|
A|---7-7-7----7-7-7--10---7------|
E|---5-5-5----------------5------|

e|------------------------------------------|
B|------------------------------------------|
G|------------------------------------------|
D|---7-7-7---9-9-9-9--12-12-12--7-7-7-7-----|
A|---7-7-7---9-9-9-9--12-12-12--7-7-7-7-----|
E|---5-5-5---7-7-7-7--10-10-10--5-5-5-5-----|

e|-------------------------------|
B|-------------------------------|
G|------------9-9-9--12----------|
D|---7-7-7----9-9-9--12---7*-----|
A|---7-7-7----7-7-7--10---7------|
E|---5-5-5----------------5------|

e|---------|
B|---------|
G|---------|
D|---5*----|
A|---5-----|
E|---3-----|

e|--------------------------|
B|--------------------------|
G|--7-7-7-------------------|  play 3 times
D|--7-7-7--7-7-7------------|
A|--5-5-5--7-7-7------------|
E|---------5-5-5------------|

e|---------------|
B|---------------| play 3 times
G|---------------|
D|---5-5-5-------|
A|---5-5-5-------|
E|---3-3-3-------|

e|------------------------------------------|
B|------------------------------------------|
G|------------------------------------------|
D|---7-7-7---9-9-9-9--12-12-12--7-7-7-7-----|
A|---7-7-7---9-9-9-9--12-12-12--7-7-7-7-----|
E|---5-5-5---7-7-7-7--10-10-10--5-5-5-5-----|

e|-------------------------------|
B|-------------------------------|
G|------------9-9-9--12----------|
D|---7-7-7----9-9-9--12---7*-----|
A|---7-7-7----7-7-7--10---7------|
E|---5-5-5----------------5------|

e|------------------------------------------|
B|------------------------------------------|
G|------------------------------------------|
D|---7-7-7---9-9-9-9--12-12-12--7-7-7-7-----|
A|---7-7-7---9-9-9-9--12-12-12--7-7-7-7-----|
E|---5-5-5---7-7-7-7--10-10-10--5-5-5-5-----|

e|-------------------------------|
B|-------------------------------|
G|------------9-9-9--12----------|
D|---7-7-7----9-9-9--12---7*-----|
A|---7-7-7----7-7-7--10---7------|
E|---5-5-5----------------5------|

e|---------|
B|---------|
G|---------|
D|---5*----|
A|---5-----|
E|---3-----|

e|--------------------------|
B|--------------------------|
G|--7-7-7-------------------|  play 3 times
D|--7-7-7--7-7-7------------|
A|--5-5-5--7-7-7------------|
E|---------5-5-5------------|

e|---------------|
B|---------------| play 3 times
G|---------------|
D|---5-5-5-------|
A|---5-5-5-------|
E|---3-3-3-------|

e|-------|
B|-------|
G|--7-7--|
D|--7-7--|
A|--5-5--|
E|-------|

bass solo

e|-----------------------------|-------------------------------|
B|-----------------------------|-------------------------------|
G|--7-7-7-----------------7-7-7|--7-7-7-----------------7-7-7--|
D|--7-7-7--7-7-7---5-5-5--7-7-7|--7-7-7--7-7-7---5-5-5--7-7-7--|
A|--5-5-5--7-7-7---5-5-5--5-5-5|--5-5-5--7-7-7---5-5-5--5-5-5--|
E|---------5-5-5---3-3-3-------|---------5-5-5---3-3-3---------|

play that 1 or 2 times
            
Tabs too difficult? Try these video lessons and learn fast.


comments powered by Disqus
↑ Back to top | Tablatures and chords are parodies/interpretations of the original songs. You may use it for private study, scholarship, research or language learning purposes only