» » »

Kid Dynamite, Breakin's A Memory Bass tabs (ver.1)

Artists:  A B C D E F G H I J K L M N O P Q R S T U V W X Y Z # 

Breakin's A Memory Bass tabs (ver.1)

Kid Dynamite Tabs
 Rating:
4/5 (4 votes)
Breakin's A Memory lessons Tabs too difficult? Try these video lessons and learn fast
                Intro + 1st Verse 
G|-----------------------------| 
D|-----------------------------| 3X 
A|-00000--22222--44444--55555--| 
E|-----------------------------| 

G|-------------------------------------| 
D|-------------------------------------| 1X 
A|-00000--22222--44444--55555--7*---7--| *(let ring) 
E|-------------------------------------| 

When the tempo changes: 
G|--------------------------------------------| 
D|-2*---22-222--------------------------------| 1X 
A|--------------44-444--55-55--4--2--00-0000--| 
E|--------------------------------------------| 

G|---------------------------------------| 
D|-22-222--------------------------------| 2X 
A|---------44-444--55-55--4--2--00-0000--| 
E|---------------------------------------| 

G|------------------------------| 
D|------------------------------| 1X 
A|-44444-5-77777--44444-5-7-4-7-| 
E|------------------------------| 

G|------------------------------| 
D|------------------------------| 1X 
A|-44444-5-77777--44444--7777---| 
E|------------------------------| 

(same as intro) 
G|-----------------------------| 
D|-----------------------------| 4X 
A|-00000--22222--44444--55555--| 
E|-----------------------------| 

Ending: 
G|------------------------------| 
D|------------------------------| 1X 
A|-0*--------0*----------------0| 
E|------------------------------| 
"You don't have to try anymore." 
            
Submit corrections

comments powered by Disqus
↑ Back to top | Kid Dynamite Bass for Breakin's A Memory. Lyrics for acoustic guitar and electric guitar. Tablatures and chords are parodies/interpretations of the original songs. You may use it for private study, scholarship, research or language learning purposes only