» » »

Birthday Tabs (ver.1)

Artists:  A B C D E F G H I J K L M N O P Q R S T U V W X Y Z # 

Birthday Tabs (ver.1)

Kid Dynamite
Rating:
0/5 (0 votes)

Hard to play? Try these video lessons and learn fast.
                Intro/Chorus 
|--------------------------------------------------------------|
|--------------------------------------------------------------|
|-9-/--11------------------------------------------------------|
|-9-/--11--9---7-/---9---2-------------------------------------|
|-7-/---9--9---7-/---9---2-------------------------------------|
|----------7---5-/---7---0-------------------------------------|

Verse Part 1
|--------------------------------------------------------------|
|--------------------------------------------------------------|
|-9---7---6----------------------------------------------------|
|-9---7---6----------------------------------------------------|
|-7---5---4----------------------------------------------------|
|--------------------------------------------------------------|

Verse Part 2
|--------------------------------------------------------------|
|--------------------------------------------------------------|
|-11-/-12-/11-----9----11-/-12-/11---14------------------------|
|-11-/-12-/11-----9----11-/-12-/11---14------------------------|
|--9-/-10-/-9-----7-----9-/-10-/-9---12------------------------|
|--------------------------------------------------------------|

Verse Part 3
|--------------------------------------------------------------|
|--------------------------------------------------------------|
|-9-9--------6-6--------9--------------------------------------|
|-9-9--7-6---6-6--7-6---9--7-6-4-6-7-6-------------------------|
|-7-7--------4-4--------7--------------------------------------|
|--------------------------------------------------------------|
            
Hard to play? Try these video lessons and learn fast. | Correct




comments powered by Disqus
↑ Back to top | Tablatures and chords are parodies/interpretations of the original songs. You may use it for private study, scholarship, research or language learning purposes only