» » »

Keziah Jones, Rythm Is Love Bass tabs (ver.1)

Artists:  A B C D E F G H I J K L M N O P Q R S T U V W X Y Z # 

Rythm Is Love Bass tabs (ver.1)

Keziah Jones Tabs
Rating:
0/5 (0 votes)
Rythm Is Love lessons Tabs too difficult? Try these video lessons and learn fast
                Band: Keziah Jones
Tuning: Standard(E-A-D-G)
Difficulty: Intermediate


Intro :

G|----------------|
D|----------------|
A|----------------|
E|--7--6--4-------| x5 ( Listen carefully the rhythm )

G|----------------|
D|----------------|
A|----------------|
E|--7----6--------| ( Chain after this on the verse )

Verse 1 :

G|-----------------------------4/6-6--6-6-4----------|
D|-------4/6-6--6-6-4-----------------------6--------|
A|--------------------6-0-4-4------------------------|
E|--4-4---------------------------------------0------| x3

G|-----------------------------------------|
D|-------4/6-6--6-6-4----------------------|
A|--------------------6-0-4----------------|
E|--4-4-------------------------0-0-2-3----|

G|-----------------------------4/6-6--6-6-4----------|
D|-------4/6-6--6-6-4-----------------------6--------|
A|--------------------6-0-4-4------------------------|
E|--4-4---------------------------------------0------| x3

G|-----------------------------------------|
D|-------4/6-6--6-6-4----------------------|
A|--------------------6-0-4----------------|
E|--4-4-------------------------0-0-2-3----|

G|-----------------------------4/6-6--6-6-4----------|
D|-------4/6-6--6-6-4-----------------------6--------|
A|--------------------6-0-4-4------------------------|
E|--4-4---------------------------------------0------| x2

Chorus : 

G|----9-------------------------------9----------------------------|
D|-----------------------------------------------------------------|
A|--7---7-x---------7---7-x---------7---7-x---------7--------------|
E|----------7---7-x---------7---7-x---------7---7-x-----7\---------| 
      P                               P

Verse 2 : 

G|-----------------------------4/6-6--6-6-4----------|
D|-------4/6-6--6-6-4-----------------------6--------|
A|--------------------6-0-4-4------------------------|
E|--4-4---------------------------------------0------| x3

G|-----------------------------6-6-----------|
D|-------4/6-6--6-6-4------------------------|
A|--------------------6-0-4-4----------------|
E|--4-4--------------------------------------| 

G|-----------------------------4/6-6--6-6-4----------|
D|-------4/6-6--6-6-4-----------------------6--------|
A|--------------------6-0-4-4------------------------|
E|--4-4---------------------------------------0------| x4

Chorus : 

G|----9-------------------------------9----------------------------|
D|-----------------------------------------------------------------|
A|--7---7-x---------7---7-x---------7---7-x---------7--------------|
E|----------7---7-x---------7---7-x---------7---7-x-----7\---------| 
      p                               P

Verse 3 : 

G|-----------------------------4/6-6--6-6-4----------|
D|-------4/6-6--6-6-4-----------------------6--------|
A|--------------------6-0-4-4------------------------|
E|--4-4---------------------------------------0------| x7

G|---------------------------------------------------------|
D|-------4/6-6--6-6-4--------------------------------------|
A|--------------------6-0-4-4--4---------------------------|
E|--4-4--------------------------0-0--0-1-1--1-2-2--0------|

G|-----------------------------4/6-6--6-6-4----------|
D|-------4/6-6--6-6-4-----------------------6--------|
A|--------------------6-0-4-4------------------------|
E|--4-4---------------------------------------0------| 

G|---------------------------------------------------------|
D|-------4/6-6--6-6-4--------------------------------------|
A|--------------------6-0-4-4--4---------------------------|
E|--4-4--------------------------0-0--0-1-1--1-2-2--0------|

G|-----------------------------4/6-6--6-6-4----------|
D|-------4/6-6--6-6-4-----------------------6--------|
A|--------------------6-0-4-4------------------------|
E|--4-4---------------------------------------0------| x4

End : 

G|----9----------------------------------------------------------|
D|---------------------------------------------------------------|
A|--7---7-x---------7---7-x---------7---7-x---------7------------|
E|----------7---7-x---------7---7-x---------7---7-x-----7-7------| 
      P


| P = Pop
| /  slide up
| \  slide down
| x  Mute note
            
Submit corrections

comments powered by Disqus
↑ Back to top | Keziah Jones Bass for Rythm Is Love. Lyrics for acoustic guitar and electric guitar. Tablatures and chords are parodies/interpretations of the original songs. You may use it for private study, scholarship, research or language learning purposes only