>
 >
If I Aint Got You

If I Aint Got You Guitar Tabs

Keys Alicia - If I Aint Got You chords, tabs, tablatures, lyrics

Guitar lessons | Add/correct | Request | Top 50 tabs Artists:  A B C D E F G H I J K L M N O P Q R S T U V W X Y Z 0-9

If I Aint Got You Guitar Tabs – Keys Alicia

CD, Sheet music, Poster

Do you like If I Aint Got You? Share with your friends now
ChordsTabs

Intro:
  Em/C                         D/B
e-12--12--12--12--12--12----|--10--10--10--10--10--10----|
B--12--12--12--12--12--12---|---10--10--10--10--10--10---|
G---12--12--12--12--12--12--|----11--11--11--11--11--11--|
D---------------------------|--0-------------------------|
A---------------------------|----------------------------|
E-0-------------------------|----------------------------|

 C/A                    Bm/G		      
-8--8--8--8--8--8----|--7--7--7--7--7--7----|
--8--8--8--8--8--8---|---7--7--7--7--7--7---|
---9--9--9--9--9--9--|----7--7--7--7--7--7--|
---------------------|----------------------|
---------------------|--9-------------------|
-8-------------------|----------------------|

Em D C  Bm  Em/C                     D/B
-7-8-10-12--12--12--12--12--12----|--10--10--10--10--10--10----|
---------12--12--12--12--12--12---|---10--10--10--10--10--10---|
----------12--12--12--12--12--12--|----11--11--11--11--11--11--|
-5-7-9--10------------------------|--0-------------------------|
----------------------------------|----------------------------|
----------------------------------|----------------------------|

 C/A                    Bm/G		       
-8--8--8--8--8--8----|--7--7--7--7--7--7--7--|
--8--8--8--8--8--8---|---7--7--7--7--7--7----|
---9--9--9--9--9--9--|----7--7--7--7--7--7---|
---------------------|-----------------------|
---------------------|--9--------------------|
-8-------------------|-----------------------|


Verse:
 G7                           Em7	  Am7			        D7
------------------------------------3-3-|-----------------------------------2-2--|
----------------3----3--------------3-3-|-1-------------1-------------------1-1--|
----------------4----4-----------0------|-0------------0------------------2------|
------------------------------2---------|-2-----------2-----------------0--------|
----------------------------------------|-0--------------------------------------|
-5-3------------------------------------|----------------------------------------|
    Some people live for the fortune	  Some people live just for the fame
    Some people search for a mountain	  Promises __ forever ________ young

 G7                         E7	      Am7	         		 D7
------------------------------------|----------------------------------------2-2-|
-------------------3------------0---|--1---------------1---------------------1-1-|
-----------------4-------------1----|--0-------------0---------------------2-----|
---------------3--------------0-----|--2-----------2---------------------0-------|
-----------------------------2------|--0-----------------------------------------|
-3--------------------------0-------|--------------------------------------------|
  Some people live for the power yeah  Some people live just to play the game
  Some people need 2 dozen roses And that's the only way to prove U love them

  Gmaj7		Am7  	       Bm7	Am7	Gmaj7     Am7       Bm7
-----2---2----------0---0--------------------|------2----------------------------|
-----0---0----------1---1----------3-----1---|-----0-------1---1-----3-----------|
---0---0----------0---0------------2-----0---|----0--------0---------------------|
---------------------------------4-------2---|-------------2---------------------|
----------------0--------------2---------0---|-------------0---0-----2-----------|
-3-------------------------------------------|--3--------------------------------|
Some __ people think that the physical things   Define __ what's  within
Hand __ me the world on a ___ silver plater     And what good would it be  

     Gmaj7	  Am7	    Bm7	          Am7	  Gmaj7	      Am7   Bm7
----------2---2-------0--0--------------------|-------2--------------------------|
----------0---0-------1--1------------3----1--|------0---------1--1--3-----------|
--------0---0-------0---0-------------2----0--|-----0----------0-----------------|
----------------------------------4--------2--|----------------2-----------------|
------------------0----------2-------------0--|----------------0--0--2-----------|
------3---------------------------------------|---3------------------------------|
I've been there before. But that life's a bore   So full of the superficial
      No one to  share _____ No  one who truly      cares ____ for   me

Chorus:
             Cmaj7			     Bm7
--------------------------|----------------------------------|
----------------------0---|-----0--0---------------------3---|
----------------------0---|-----0--0-----------------2-------|
------------------2-------|-----2--2-------------4-----------|
--------------3-----------|-----3--3----------2--------------|
--------------------------|----------------------------------|
 Some people want it all    But I don't want nothing at all

             Am7                          Gmaj7
------------------------|----------------------2-------------|
--------------1-----1---|---------------------0--------------|
--------2-----0-----0---|--------------------0---------------|
--------------2--2------|--------2---------------------------|
--------2-----0---------|--------0---------------------------|
------------------------|------------------3-----------------|
 If it ain't you baby      If I ain't got you baby

                  Cmaj7		        	 Bm7
-------------------0--0----0----|----------------------------|
-----0------0------0--0----0----|------------------------3---|
-------------------0--0----0----|----------------------2-----|
-------------------2--2----2----|-------------------4--------|
-------------------3--3----3----|----------------2-----------|
-----3------3-------------------|----------------------------|
 Some people want diamond rings   Some just want everything

                Bm7   Am7 	 	      Gmaj7
------------------------------|-----------------2------------|
-----------------3-----1------|-------------1---0------------|
-----------------2-----0------|-------------0---0------------|
-----------------4-----2------|-------2----------------------|
-----------------2-----0------|----0-------------------------|
------------------------------|-----------------3------------|
 But everything means nothing   If I ain't got you

Intro 
Verse 1 
Chorus 
Verse 2 
Chorus 
Intro





Comments


Popular Keys Alicia tabs & chords
Aint Got Nothing Chords
Fallin Chords
If I Aint Got You Chords
Butterflyz (Intro) Tabs
Fallin Tabs
Fallin (Intro) Tabs
Goodbye Tabs


Song lyrics



↑ Back to top | Tablatures and chords are parodies/interpretations of the original songs. You may use it for private study, scholarship, research or language learning purposes only
© 2014 AZChords.com Contact us | Privacy policy | DMCA | Add/correct tabs | Request tabs | Top 50 tabs