>
 >
Something About You 1

Something About You 1 Guitar Tabs

Kevin Welch - Something About You 1 chords, tabs, tablatures, lyrics

Guitar lessons | Add/correct | Request | Top 50 tabs Artists:  A B C D E F G H I J K L M N O P Q R S T U V W X Y Z 0-9

Something About You 1 Guitar Tabs – Kevin Welch

CD, Sheet music, Poster

Do you like Something About You 1? Share with your friends now
ChordsTabsTabs v2Ukulele

GUITAR TAB for "Something 'bout You"(Kevin Welch @nd The Overtones-Western Beat)



Intro (Slide Guitar)

E|--------0-------1-------3---3>8-----0-----------|
B|1-----1-------1-------1---------8-6--1----------|
G|-------------------------------0------0---------|
D|----2-------2-------2------------------3-2------|
A|--3-------3-------3-----------------------3-0-3-|
E|---------------------------------------------3--|

E|----------------------------|
B|3>5-------------------------|
G|---5--------0---------------|
D|-----2>3-1>2--1>2---2h3-3>5-|
A|--------------2>3-3-3---3>5-|
E|----------------------------|

E|--------------------------|
B|-----------------1---3>13-|
G|--------------------------|
D|--2----1----1h0-----------|
A|3----3----3----3----------|
E|-3----3----3--------------|



Intro II - CAPO ON III FRET

  (A)                           (D)     (A)
E|------0-|-----------------|----------------|------0---------------0-----|
B|--2-3---|-------2-------2-|------3-----0h2-|--------------2-------------|
G|2-------|---2-------2-----|--2-------2-----|--2-------2-------2-------2-|
D|--------|-----2-------2---|----0-----------|2-----------2-------2-------|
A|-------0|(0)------0-------|0-------0---0---|----0---0-------0-------0---|
E|--------|-----------------|----------------|----------------------------|

 (D)                            (A)       (E)                           (A)
E|------5---4h2---|------5--4h2-|0--------|-0--|---4------2-------2-----|-------------|
B|----3---2-----3-|---3----2----|2-----3h2|---0|----5-5-------5-------5-|----2h3h2----|
G|--2----3-----2--|--2----3-----|2---2----|----|2>4-----4-------4-------|---2------2--|
D|0---------0-----|-----0---4---|--2------|----|------------2-------2---|--2------2---|
A|-----0----------|0------------|0--------|----|------------------------|0----------0-|
E|----------------|-------------|---------|0---|------------------------|-------------|



Part I - Singing (I don't want nobody...)

 (A)                                    (D)   (A)
E|-----------------|------0---------|-----2---|----------0--|
B|-------2-------2-|------------0h2-|-------3-|----2------2-|
G|---2-------2-----|--2-------2-----|--2---2--|---2--2------|
D|-----2-------2---|----2-----------|----0----|--2------2---|
A|(0)------0-------|0-------0-------|0--------|0------0-----|
E|-----------------|----------------|---------|-------------|

 (D)                            (A)             (E)                  (A)
E|-2----2----2----2----2----2---|---------------|------0-------------|----0----------0-|
B|---3----3----3----3----3----3-|----2h3h2------|----0---0--0----0---|-------2---2-3---|
G|--2----2----2----2----2----2--|---2------2----|--1----1-----1----1-|---2-----2-------|
D|0----0----0----0----0----0----|--2------2-----|------------2----2--|--2-------2------|
A|------------------------------|0--------------|-----2--------------|0-------0--------|
E|------------------------------|---------------|0---------0----0----|-----------------|

 (A)                   (D)   (A)
E|-----------------|-----2---|------------0---|
B|-------2-------2-|-------3-|----2-----------|
G|---2-------2-----|--2---2--|---2--2---2---2-|
D|-----2-------2---|----0----|--2------2---2--|
A|(0)------0-------|0--------|0------0--------|
E|-----------------|---------|----------------|

 (D)                            (A)         (E)                  (A)
E|-2----2----2----2----2----2---|-----------|------0-------------|-----0---------|
B|---3----3----3----3----3----3-|---2h3h2---|----0---0--0----0---|----3------2---|
G|--2----2----2----2----2----2--|---------2-|--1----1-----1----1-|---2-----2---2-|
D|0----0----0----0----0----0----|--2-----2--|------------2----2--|--2-------2----|
A|------------------------------|0----------|-----2--------------|0-----0-0---0--|
E|------------------------------|-----------|0---------0----0----|---------------|

 (E)               (D)      (A)                    (E)
E|-----------------|----2---|--------------------0-|-----0----|
B|---0---0---0---0-|---3--3-|----2----2---2---3----|----------|
G|-----1---1---1---|--2--2--|--2----2---2---2---2--|---1---1--|
D|----2---2---2----|0-------|---2----2---2---2-----|----2-2---|
A|-----------------|--------|0-----0---0---0---0---|----------|
E|0-0---0---0---0--|--------|----------------------|0-0-----0-|

 (E)                       (D)      (A)                    (E)               (A)
E|-------------------0-----|----2---|--------------------0-|-----0-----------|----------|
B|---0---0---0---0-------0-|---3--3-|----2----2---2---3----|---------0---0---|-----2----|
G|-1---1---1---1---1---1---|--2--2--|--2----2---2---2---2--|---1---1---1---1-|---2---2--|
D|--2---2---2---2---2---2--|0-------|---2----2---2---2-----|----2-2---2---2--|----2-2---|
A|-------------------------|--------|0-----0---0---0---0---|-----------------|0-0-----0-|
E|0---0---0---0---0---0----|--------|----------------------|0-0-----0---0----|----------|



Solo (Variation of Intro II)

 (A)                            (D)     (A)
E|------0-|-----------------|----0-2---------|------0---------------0-----|
B|--2-3---|-------2-------2-|------------0h2-|--------------2-------------|
G|2-------|---2-------2-----|--2-------2-----|--2-------2-------2-------2-|
D|--------|-----2-------2---|----0-----------|2-----------2-------2-------|
A|-------0|(0)------0-------|0-------0---0---|----0---0-------0-------0---|
E|--------|-----------------|----------------|----------------------------|

 (D)                            (A)       (E)                           (A)
E|------5---4h2---|------5--4h2-|0--------|-0--|---4------2-------2-----|-------------|
B|----3---2-----3-|---3----2----|2-----3h2|---0|----5-5-------5-------5-|----2h3h2----|
G|--2----3-----2--|--2----3-----|2---2----|----|2>4-----4-------4-------|---2------2--|
D|0---------0-----|-----0---4---|--2------|----|------------2-------2---|--2------2---|
A|-----0----------|0------------|0--------|----|------------------------|0----------0-|
E|----------------|-------------|---------|0---|------------------------|-------------|

E|-------------|
B|-------------|
G|2-1----------|
D|----4-2------|
A|--------2>4--|
E|-------------|



Part II

 (Bm)                 (A)                  (Bm)                 (A)
E|-----2----2----2----|-------0-(0)--------|-----2----2----2----|-----0---------0----|
B|-----3----3----3----|---2-----------2----|-----3----3----3----|----------2---------|
G|---4----4----4----4-|-----2-------2----2-|---4----4----4----4-|---2----2----2----2-|
D|----4----4----4-----|----2---------2-----|----4----4----4-----|----2----2----2-----|
A|2-2----2----2----2--|0-0---0-----0----0--|2-2----2----2----2--|0-0----0----0----0--|
E|--------------------|--------------------|--------------------|--------------------|

 (Bm)                 (A)                  (B)                  (E)
E|-----2----2----2----|-----0---------0----|--------------------|---------x-|
B|-----3----3----3----|----------2---------|---4----4----4----4-|-----0---0-|
G|---4----4----4----4-|---2----2----2----2-|-4----4----4----4---|---1---1-1-|
D|----4----4----4-----|----2----2----2-----|--4----4----4----4--|----2----2-|
A|2-2----2----2----2--|0-0----0----0----0--|2----2----2----2----|------2--2-|
E|--------------------|--------------------|--------------------|0-0------0-|



Part III

 (A)               (D)        (A)
E|-----------------|----------|-------0---------|
B|-------2-------2-|-----3----|-----3-------2---|
G|---2-------2-----|--2-----2-|---2-------2---2-|
D|-----2-------2---|----0-----|----2-------2----|
A|0-0------0-------|0-----0---|0-0---0-0-0---0--|
E|-----------------|----------|-----------------|

 (D)                            (A)             (E)
E|------------------------------|---------------|-----0-----------|
B|---3----3----3----3----3----3-|----2h3h2------|---------0---0---|
G|--2----2----2----2----2----2--|---2------2----|---1---1---1---1-|
D|-0----0----0----0----0----0---|--2------2-----|----2-2---2---2--|
A|0----0----0----0----0----0----|0--------------|-----------------|
E|------------------------------|---------------|0-0-----0---0----|

 (A)
E|-------0---------|
B|-----3--------0--|
G|---2--------2----|
D|----2-----2------|
A|0-0---0-0--------|
E|-----------------|

 (E)               (D)      (A)                      (E)
E|-------------0---|----2---|-------------0-------0--|-----------0--|
B|-----0---0-------|---3--3-|----2----2-------2------|-----0------0-|
G|---1---1---1---1-|--2--2--|--2----2---2---2---2---2|---1---1------|
D|----2---2---2----|0-------|---2----2---2---2---2---|----2-2-------|
A|-----------------|--------|0-----0---0---0---0---0-|----------0---|
E|0-0---0---0---0--|--------|------------------------|0-0-----0-----|

 (E)               (D)      (A)                    (E)
E|-----------0-----|----2---|--------------------0-|----0----|
B|---0---0-------0-|---3--3-|----2----2---2---3----|---0-----|
G|-1---1---1---1---|--2--2--|--2----2---2---2---2--|--1---1--|
D|--2---2---2---2--|0-------|---2----2---2---2-----|-----2---|
A|-----------------|--------|0-----0---0---0---0---|---------|
E|0---0---0---0----|--------|----------------------|0------0-|

 (A)
E|-------------------0-----0-|
B|------3--3-3-----3---2h0-2-|
G|-----2--2------2---------2-|
D|----2-----2-----2---2----2-|
A|0-00---------00---0------0-|
E|---------------------------|





Comments


Popular Kevin Welch tabs & chords
Beneath My Wheels Chords
I Am No Drifter Chords
Killing Myself Chords
Reno & Me Chords
Sam's Town Chords
Thatll Be Me Chords
Town This Size Chords
Train To Birmingham Chords
Something About You Tabs
Something About You Ukulele


Song lyrics



↑ Back to top | Tablatures and chords are parodies/interpretations of the original songs. You may use it for private study, scholarship, research or language learning purposes only
© 2014 AZChords.com Contact us | Privacy policy | DMCA | Add/correct tabs | Request tabs | Top 50 tabs