» » »

Let It Rock Tabs (ver.1)

Artists:  A B C D E F G H I J K L M N O P Q R S T U V W X Y Z # 

Let It Rock Tabs (ver.1)

Kevin Rudolf
Rating:
5/5 (14 votes)

Hard to play? Try these video lessons and learn fast.
                Kevin Rudolf ft. Lil Wayne - Let it rock
----------------------------------------
Tuning: Standard

Riff played throughout the whole song:

E|-----10-10----12----12-13------10-10----13-12-10---|
B|--10-------10----10---------10-------10------------|
G|---------------------------------------------------|
D|---------------------------------------------------|
A|---------------------------------------------------|
e|---------------------------------------------------|

E|-----10-10----12----10-12------10-10----13-12-10---|
B|--10-------10----10---------10-------10------------|
F|---------------------------------------------------|
D|---------------------------------------------------|
A|---------------------------------------------------|
e|---------------------------------------------------|


Verse 1:

E|---------------------------------------|
B|---------------------------------------|
G|------------------7--7-7-7-7-7-7-7-7---|
D|--3-3-3-3--5-5-5--7--7-7-7-7-7-7-7-7---| x2
A|--3-3-3-3--5-5-5--5--5-5-5-5-5-5-5-5---|
e|--1-1-1-1--3-3-3-----------------------|

"I see your...."

E|---------------------------------------|
B|---------------------------------------|
G|------------------7--7-7-7-7-7-7-7-7---|
D|--8-8-8-8--5-5-5--7--7-7-7-7-7-7-7-7---| x2
A|--8-8-8-8--5-5-5--5--5-5-5-5-5-5-5-5---|
e|--6-6-6-6--3-3-3-----------------------|

"... Pray to god..."

E|---------------------------------------|
B|---------------------------------------|
G|------------------7--7-7-7-7-7-7-7-7---|
D|--3-3-3-3--5-5-5--7--7-7-7-7-7-7-7-7---| x2
A|--3-3-3-3--5-5-5--5--5-5-5-5-5-5-5-5---|
e|--1-1-1-1--3-3-3-----------------------|

 "... take   your   time... "

E|---------------------------------------|
B|---------------------------------------|
G|------------------7--7-7-7-7-7-7-7-7---|
D|--8-8-8-8--5-5-5--7--7-7-7-7-7-7-7-7---| x2
A|--8-8-8-8--5-5-5--5--5-5-5-5-5-5-5-5---|
e|--6-6-6-6--3-3-3-----------------------|

 "...  made   your   bed..."


Chorus:

E|---------------------------------------|
B|---------------------------------------|
G|------------------7--7-7-7-7-7-7-7-7---|
D|--3-3-3-3--5-5-5--7--7-7-7-7-7-7-7-7---| x2
A|--3-3-3-3--5-5-5--5--5-5-5-5-5-5-5-5---|
e|--1-1-1-1--3-3-3-----------------------|

"Because when I...."

E|---------------------------------------|
B|---------------------------------------|
G|------------------7--7-7-7-7-7-7-7-7---|
D|--8-8-8-8--5-5-5--7--7-7-7-7-7-7-7-7---| x2
A|--8-8-8-8--5-5-5--5--5-5-5-5-5-5-5-5---|
e|--6-6-6-6--3-3-3-----------------------|

"What is this, forgot..."


Verse 2 is the same as verse 1 but the first half is palm muted...

Chorus 2 is the same as chorus 1

Verse 3 is the same as verse 2

Chorus 3:

E|---------------------------------------|
B|---------------------------------------|
G|---------------------------------------|
D|---------------------------------------| x2
A|---------------------------------------|
e|---------------------------------------|

"Because when I...."

E|---------------------------------------|
B|---------------------------------------|
G|------------------7--7-7-7-7-7-7-7-7---|
D|--8-8-8-8--5-5-5--7--7-7-7-7-7-7-7-7---| x2
A|--8-8-8-8--5-5-5--5--5-5-5-5-5-5-5-5---|
e|--6-6-6-6--3-3-3-----------------------|

"What is this, forgot, I must now remind you.."



Solo:

E|----------------------------------------------------------------------|
B|--15-18-18b20~~r18----15~----20b22~~-----15~~----18-18b20~~--15--15-15|
G|----------------------------------------------------------------------|
D|----------------------------------------------------------------------| 
A|----------------------------------------------------------------------|
e|----------------------------------------------------------------------|

E|----------------------------------------------------------------------|
B|-----------------------------------------------------18b20~-20b22~~~~~|
G|----------------------------------------------------------------------|
D|--15h17-17b-15h17-17b-15h17-------------------------------------------| 
A|----------------------------17~~~~~~~~~~~~~~--------------------------|
e|----------------------------------------------------------------------|

E|----------------------------------------------------------------------|
B|--15b-15p12-15b-15p12-15b-15p12-15b-15p12-15b-15p12-15b-15p12---------|
G|----------------------------------------------------------------------|
D|----------------------------------------------------------------------| 
A|----------------------------------------------------------------------|
e|----------------------------------------------------------------------|

E|----------------------------------------------------------------------|
B|--18b20~~--17b19~~--15---15-15~~~~~~~~~~------------------------------|
G|----------------------------------------------------------------------|
D|----------------------------------------------------------------------| 
A|----------------------------------------------------------------------|
e|----------------------------------------------------------------------|

The 15b 15p12 part just sounds right if you play it bloody fast...
  

After the solo there is no guitar anymore

Listen to the song to get the rythm right

Enjoy!
            
Hard to play? Try these video lessons and learn fast. | Correct




comments powered by Disqus
↑ Back to top | Tablatures and chords are parodies/interpretations of the original songs. You may use it for private study, scholarship, research or language learning purposes only