» » »

Kephart Rick, The Cyber Jig Tabs (ver.1)

Artists:  A B C D E F G H I J K L M N O P Q R S T U V W X Y Z # 

The Cyber Jig Tabs (ver.1)

Kephart Rick Tabs
 Rating:
4/5 (4 votes)
The Cyber Jig lessons Tabs too difficult? Try these video lessons and learn fast
1
                _THE CYBER JIG_

6/8 (jig) time (fast)   Key of C
(dotted quarter notes at the end of part A and part B)

A

-------0--------0-|-------0--1--0----|------------------|-0----------------|
-1--3-----1--3----|-1--3-----------3-|-0--1--3--0--1--3-|----3--1--3--1--3-|
-------0--------0-|-------0--------0-|-------0--------0-|-------0--------0-|
------------------|------------------|-0--------0-------|-0--------0-------|
-3--------3-------|-3--------3-------|------------------|------------------|
------------------|------------------|------------------|------------------|
 i  m  i  i  m  i   i  m  i  m  i  m   i  m  i
 t     t  t     t   t     t  t     t   t     t


-------0--------0-|-------0--1--0----|------------------|-0----------------||
-1--3-----1--3----|-1--3-----------3-|-0--1--3--0--1--3-|----3--0--1-------||
-------0--------0-|-------0--------0-|-------0--------0-|-------0--------'-||
------------------|------------------|-0--------0-------|-0--------------'-||
-3--------3-------|-3--------3-------|------------------|----------3-------||
------------------|------------------|------------------|------------------||

B

----0--------0----|----1--------1----|----0--------0----|-3--1--0--1--0--1-|
-1-----1--1-----1-|-3-----3--3-----3-|-1-----1--1-----1-|-------0----------|
-------0--------0-|-------0--------0-|-------0--------0-|----------0-------|
------------------|-0--------0-------|------------------|-0--------------0-|
-3--------3-------|------------------|-3--------3-------|------------------|
------------------|------------------|------------------|------------------|


----0--------0----|----1--------1----|----0--------0----|------------------||
-1-----1--1-----1-|-3-----3--3-----3-|-1-----1--1-----1-|-3--1--0--1-------||
-------0--------0-|-------0--------0-|-------0--------0-|-------0--0-----'-||
------------------|-0--------0-------|------------------|-0--------------'-||
-3--------3-------|------------------|-3--------3-------|----------3-------||
------------------|------------------|------------------|------------------||
            
Submit corrections

comments powered by Disqus
↑ Back to top | Kephart Rick Tabs for The Cyber Jig. Lyrics for acoustic guitar and electric guitar. 1 Tablatures and chords are parodies/interpretations of the original songs. You may use it for private study, scholarship, research or language learning purposes only