>
 >
Elf Song

Elf Song Guitar Tabs

Kephart Rick - Elf Song chords, tabs, tablatures, lyrics

Guitar lessons | Add/correct | Request | Top 50 tabs Artists:  A B C D E F G H I J K L M N O P Q R S T U V W X Y Z 0-9

Elf Song Guitar Tabs – Kephart Rick

CD, Sheet music, Poster

Do you like Elf Song? Share with your friends now
TabsTabs v2
ELF SONG

                                    an original guitar tune by Rick Kephart

Key: E maj                              . after a note = dotted eighth note
Time: 6/8  (mostly eighth notes)        q = quarter note

                                q                   q                 q
     |        |        |        |          |        |        |        |
e|------------0------|----------0-------|--------0---------|-----------------|
b|*--0--2--4----4--2-|-0--2--4-------2--|--2--4-----4----0-|-2--0--2--0------|
g|---1---------------|-1-------------2--|--2---------------|-1--------1------|
D|*-----------2------|----------2----2--|--2--------4------|-2-------------2-|
A|------------2------|----------2----0--|--0--------2------|-----------------|
E|---0---------------|-0----------------|------------------|----------0------|

                                q                   q
     |        |        |        |          |        |        |        |
e|------------0------|----------0-------|--------0-------2-|-5--4--2--0------|
b|---0--2--4----4--2-|-0--2--4-------2--|--2--4-----4------|----------------*|
g|---1---------------|-1-------------2--|--2---------------|-2--------1------|
D|------------2------|----------2----2--|--2--------4------|-2--------------*|
A|------------2------|----------2----0--|--0--------2------|-0---------------|
E|---0---------------|-0----------------|------------------|----------0------|


 3/8                             q

e -0-----0-|-2-----2-|-4--0--4-|-5-----0-|-0--2--4-|-2-------|---------|-----|
b ----0----|-0--4----|-0-------|-2-------|-0-------|-3-------|-3--1--0-|-----|
g -1-------|---------|-1-------|-2-------|-1-------|-2-------|-0-------|-2---|
D ---------|---------|---------|---------|---------|-0-------|-0-------|-2---|
A ---------|-2-------|---------|-0-------|---------|---------|---------|-0---|
E -0-------|---------|-0-------|---------|-0-------|---------|-3-------|-----|

                                                     q
e -0-------|-3--2--0-|-4--2--0-|-5--4--2-|-0--2--4-|-2-----4-|-5.--4-2-|-0---|
b ----4--2-|-0-------|-0-------|-2-------|-0-------|-0-------|-2.------|-0---|
g -1-------|-0-------|-1-------|-2-------|-1-------|---------|-2.------|-----|
D ---------|---------|---------|---------|---------|---------|---------|-2---|
A ---------|---------|---------|-0-------|---------|-2-------|-0.------|-----|
E -0-------|-3-------|-0-------|---------|-0-------|---------|---------|-0---|



 6/8   rhythm: dotted-eighth - sixteenth - eighth note
                                q                   q                 q
     |        |        |        |          |        |        |        |
e|------------0------|----------0-------|--------0---------|-----------------|
b|*--0.--2-4-----4-2-|-0.--2-4-------2--|--2.--4----4----0-|-2.--0-2--0------|
g|---1.--------------|-1.------------2--|--2.--------------|-1.-------1------|
D|*-----------2------|----------2----2--|--2.-------4------|-2.------------2-|
A|------------2------|----------2----0--|--0.-------2------|-----------------|
E|---0.--------------|-0.---------------|------------------|----------0------|

                                q                   q
     |        |        |        |          |        |        |        |
e|------------0.-----|----------0-------|--------0-------2-|-5.--------------|
b|---0.--2-4-----4-2-|-0.--2-4-------2--|--2.--4----4------|-----4-2--0-----*|
g|---1.--------------|-1.------------2--|--2.--------------|-2.-------1------|
D|------------2.-----|----------2----2--|--2.-------4------|-2.-------------*|
A|------------2.-----|----------2----0--|--0.-------2------|-0.--------------|
E|---0.--------------|-0.---------------|------------------|----------0------|


 3/8                             q

e -0.----0-|-2.----2-|-4.--0-4-|-5-----0-|-0.--2-4-|-2-------|
b -----0---|-0.--4---|-0.------|-2-------|-0.------|-3-------|
g -1.------|---------|-1.------|-2-------|-1.------|-2-------|
D ---------|---------|---------|---------|---------|-0-------|
A ---------|-2.------|---------|-0-------|---------|----3--2-|
E -0.------|---------|-0.------|---------|-0.------|---------|


e ---------|---------|
b -3.--1-0-|---------|
g -0.------|-2-------|
D -0.------|-2-------|
A ---------|-0-------|
E -3.------|----3--2-|
                                 q                   q        rit.

e -0.------|-3.--2-0-|-4.--2-0-|-5-----0-|-0.--2-4-|-2-----4-|-5--4--2-|-0--||
b -----4-2-|-0.------|-0.------|-2-------|-0.------|-0-------|-2-----2-|-0--||
g -1.------|-0.------|-1.------|-2-------|-1.------|---------|-2-----2-|-1--||
D ---------|---------|---------|---------|---------|---------|---------|-2--||
A ---------|---------|---------|-0-------|---------|-2-------|-0-----0-|-2--||
E -0.------|-3.------|-0.------|---------|-0.------|---------|---------|-0--||

end of song

Rick Kephart





Comments


Popular Kephart Rick tabs & chords
Elf Song 1 Tabs
Merry Day Tabs
Merry Day 1 Tabs
The Cyber Jig Tabs
The Cyber Jig 1 Tabs


Song lyrics



↑ Back to top | Tablatures and chords are parodies/interpretations of the original songs. You may use it for private study, scholarship, research or language learning purposes only
© 2014 AZChords.com Contact us | Privacy policy | DMCA | Add/correct tabs | Request tabs | Top 50 tabs