» » »

Kent, Vinternoll2 Tabs (ver.3)

Artists:  A B C D E F G H I J K L M N O P Q R S T U V W X Y Z # 

Vinternoll2 Tabs (ver.3)

Kent Tabs
Rating:
0/5 (0 votes)
Vinternoll2 lessons Tabs too difficult? Try these video lessons and learn fast
                  H= Hammer On
  P= Pull Off
  /= Slide
Intro:
e|----------------------------------------|1-|
B|----------------------------------------|2-|
G|-----6----6-----6-----6---6-------------|3-|
D|----------------------------------------|4-|
A|--4----4-----4-----4----4---------------|5-|
E|----------------------------------------|6-|

Then this

e|-9--9--7--9-------9--9--7--9-------9--9--7--9-------9--9--7--9-----|1---|
B|-------------9----------------7----------------9-------------------|2---|
G|-------------------------------------------------------------------|3---|
D|-------------------------------------------------------------------|4---|  X2
A|-------------------------------------------------------------------|5---|
E|-------------------------------------------------------------------|6---|

Main Riff

e|----------------------------------------------------------------|1-|
B|----------------------------------------------------------------|2-|
G|-9--9--8--9--8----8--8--6--8--6----6--6-------------------------|3-|
D|-----------------------------------------9--6----6--------------|4-|
A|----------------------------------------------------9--7--------|5-|
E|----------------------------------------------------------9-----|6-|

e|----------------------------------------------------------------|1-|
B|-9--9--7--9--7----7--7---7--------------------------------------|2-|
G|-----------------------9---9----9--9--8-------------------------|3-|
D|----------------------------------------6----6------------------|4-|
A|------------------------------------------------9--7--6----6/12-|5-|
E|----------------------------------------------------------------|6-|

During The Verses:

e|----------------------------------------|1-|
B|-7--9--7--9--------7--9--7--9-----------|2-|
G|-------------8--9-----------------------|3-|
D|----------------------------------------|4-|
A|----------------------------------------|5-|
E|----------------------------------------|6-|

Or you can play it like this so they overlap

e|---4---4---------4---4------------------|1-|
B|-7---7----4-5--7---7--------------------|2-|
G|----------------------------------------|3-|
D|----------------------------------------|4-|
A|----------------------------------------|5-|
E|----------------------------------------|6-|

       Chorus:

e|---7--------------------------------7----------------------|1-|
B|-9---------------------7---------------9--7--9-------------|2-|
G|-----8--9--6--------9----8--9--6----------------6----------|3-|
D|-----------------------------------------------------------|4-|
A|-----------------------------------------------------------|5-|
E|-----------------------------------------------------------|6-|

         Repeat Main Riff

e|----------------------------------------------------------------|1-|
B|----------------------------------------------------------------|2-|
G|-9--9--8--9--8----8--8--6--8--6----6--6-------------------------|3-|
D|-----------------------------------------9--6----6--------------|4-|
A|----------------------------------------------------9--7--------|5-|
E|----------------------------------------------------------9-----|6-|

e|----------------------------------------------------------------|1-|
B|-9--9--7--9--7----7--7---7--------------------------------------|2-|
G|-----------------------9---9----9--9--8-------------------------|3-|
D|----------------------------------------6----6------------------|4-|
A|------------------------------------------------9--7--6----6/12-|5-|
E|----------------------------------------------------------------|6-|

   Then Verses Again

e|----------------------------------------|1-|
B|-7--9--7--9--------7--9--7--9-----------|2-|
G|-------------8--9-----------------------|3-|
D|----------------------------------------|4-|
A|----------------------------------------|5-|
E|----------------------------------------|6-|

Or you can play it like this so they overlap

e|---4---4---------4---4------------------|1-|
B|-7---7----4-5--7---7--------------------|2-|
G|----------------------------------------|3-|
D|----------------------------------------|4-|
A|----------------------------------------|5-|
E|----------------------------------------|6-|

   Chorus:

e|---7--------------------------------7----------------------|1-|
B|-9---------------------7---------------9--7--9-------------|2-|
G|-----8--9--6--------9----8--9--6----------------6----------|3-|
D|-----------------------------------------------------------|4-|
A|-----------------------------------------------------------|5-|
E|-----------------------------------------------------------|6-|

Then Main Riff, followed by Chorus, and then the

                 Solo
e|-7-----------------------------------------|1-|
B|---10-9--9--7------------------7--9--------|2-|
G|--------------8----8--6--8--9--------------|3-|
D|-------------------------------------------|4-|
A|-------------------------------------------|5-|
E|-------------------------------------------|6-|


e|-7-----------------------------------------|1---|
B|---10-9--9--7------------------7-----------|2---|
G|--------------8----8--6--8--9----8---------|3---|
D|-------------------------------------------|4---|  X2
A|-------------------------------------------|5---|
E|-------------------------------------------|6---|

e|-7-----------7-----------------------------|1-|
B|---10-9--10----9---------------------------|2-|
G|-------------------------------------------|3-|
D|-------------------------------------------|4-|
A|-------------------------------------------|5-|
E|-------------------------------------------|6-|

             Outro

e|-9-9-9-7-9------9-9-9-7-9-----9-9-9-7-9------9-9-9-7-9h10p9-----|1---|
B|-----------9--------------7-------------9-----------------------|2---|
G|----------------------------------------------------------------|3---|  X4
D|----------------------------------------------------------------|4---|
A|----------------------------------------------------------------|5---|
E|----------------------------------------------------------------|6---|


Comments and Corrections Welcome, this was my first tab, stole the intro parts from 
else but worked the rest out by ear :)
            
Submit corrections

comments powered by Disqus
↑ Back to top | Kent Tabs for Vinternoll2. Lyrics for acoustic guitar and electric guitar. Tablatures and chords are parodies/interpretations of the original songs. You may use it for private study, scholarship, research or language learning purposes only