» » »

Kenotia, Decorating For Cinco De Mayo Bass tabs (ver.1)

Artists:  A B C D E F G H I J K L M N O P Q R S T U V W X Y Z # 

Decorating For Cinco De Mayo Bass tabs (ver.1)

Kenotia Tabs
 Rating:
4/5 (4 votes)
Decorating For Cinco De Mayo lessons Tabs too difficult? Try these video lessons and learn fast
                
Intro

G|--------------------------------------------|
D|--------------------------------------------|
A|-3-3-3---5-5-5-5--7-7-7-7-7--5--7-7-7-7--5--|
E|--------------------------------------------|    (2x)

G|--------------------------------------------|
D|------------------7-7-7-5-5-5-5--9-7-5------|
A|-3-3-3---5-5-5-5----------------------------|
E|--------------------------------------------|


Verse
G|----------------------------------------------|
D|----------------------------------------------|
A|-3-3-3-3-3-3--5-5-5-5-5-5---------------------|
E|--------------------------3-3-3-3-3-3-3-3-3-3-|

G|----------------------------------------------|
D|--------------------------5-5-5-5-5-----------|
A|-2-2-3-3-3-3-3--5-5-5-5-5---------------------|
E|------------------------------------3-3-3-3-3-|


Pre Chorus

G|------------------------------------------------------------------|
D|-----2(18x)----------------2(18x)---------------------5-5-5-5-5-5-|
A|--5---------5--3(18x)--5----------5—3(18x)--5-5-5-5-5-------------|
E|------------------------------------------------------------------|

Chorus

G|--------------------------------------------|
D|--------------------------------------------|
A|-3-3-3---5-5-5-5--7-7-7-7-7--5--7-7-7-7--5--|
E|--------------------------------------------|    (2x)

G|--------------------------------------------|
D|------------------7-7-7-5-5-5-5--9-7-5------|
A|-3-3-3---5-5-5-5----------------------------|
E|--------------------------------------------|

Verse

G|----------------------------------------------|
D|----------------------------------------------|
A|-3-3-3-3-3-3--5-5-5-5-5-5---------------------|
E|--------------------------3-3-3-3-3-3-3-3-3-3-|

G|---------------------------------------------------|
D|--------------------------5-5-5-5-5----------------|
A|-2-2-3-3-3-3-3--5-5-5-5-5--------------------------|
E|------------------------------------3-3-3-3-3------|
G|---------------------------------------------------|
D|---------------------------------------------------|
A|-2-2-3-3-3-3-3-3--5-5-5-5-5-5----------------------|
E|------------------------------3-3-3-3-3-3-3-3-3-3--|

G|----------------------------------------------|
D|--------------------------5-5-5-5-5-----------|
A|-2-2-3-3-3-3-3--5-5-5-5-5---------------------|
E|------------------------------------3-3-3-3-3-|


Pre Chorus

G|------------------------------------------------------------------|
D|-----2(18x)----------------2(18x)---------------------5-5-5-5-5-5-|
A|--5---------5--3(18x)--5----------5—3(14x)--5-5-5-5-5-------------| (2x)
E|------------------------------------------------------------------|

Chorus

G|--------------------------------------------|
D|--------------------------------------------|
A|-3-3-3---5-5-5-5--7-7-7-7-7--5--7-7-7-7--5--|
E|--------------------------------------------|    (2x)

G|--------------------------------------------|
D|------------------7-7-7-5-5-5-5--9-7-5------|
A|-3-3-3---5-5-5-5----------------------------|
E|--------------------------------------------|

Pause

[Time-3:18]

Bridge
G|---------------------------------------------------|
D|--------------------------------------------5-5-5--|
A|-2-2--3--5-5-5-5-5----------2-2--3--5-5-5-5--------|
E|-------------------3-3-3-3-------------------------|


G|-----------------------------------------------------------------|
D|----------------------7-7-7-7-7--5-5-5-5-5-------------7-5-7-9---|
A|-3-3-3--5-5-5--7-7-7------------------------7-7-7-7-7------------| (2x)
E|-----------------------------------------------------------------|

Final

G|--------------------------------------------|
D|--------------------------------------------|
A|-3-3-3---5-5-5-5--7-7-7-7-7--5--7-7-7-7--5--|
E|--------------------------------------------|    (2x)

G|--------------------------------------------|
D|------------------7-7-7-5-5-5-5--9-7-5------|
A|-3-3-3---5-5-5-5-----------------------3----|
E|--------------------------------------------|
            
Submit corrections

comments powered by Disqus
↑ Back to top | Kenotia Bass for Decorating For Cinco De Mayo. Lyrics for acoustic guitar and electric guitar. Tablatures and chords are parodies/interpretations of the original songs. You may use it for private study, scholarship, research or language learning purposes only