» » »

Kenny Wayne Shepherd, Honky Tonk Bass tabs (ver.1)

Artists:  A B C D E F G H I J K L M N O P Q R S T U V W X Y Z # 

Honky Tonk Bass tabs (ver.1)

Kenny Wayne Shepherd Tabs
 Rating:
4/5 (4 votes)
Honky Tonk lessons Tabs too difficult? Try these video lessons and learn fast
1
                

Intro/Chorus
G|----------------------------------------------------|
D|--------------3--3-3--3-3--5--5-5--5-5--------------|
A|-5--5-5--5-5----------------------------5--5-5--5-5-|
E|----------------------------------------------------|

Bridge
G|--------------------|
D|--------------------|
A|-5--5-5-5--3s5--3s5-|
E|--------------------|

Verse
G|---------------------------|
D|---------------------------|Play this 3 times.
A|-5-5---5-5---5-5---0-3-4-5-|
E|---------------------------|

G|---------------------------|
D|-5-5---5-5---5-5---0-3-4-5-|Play this 2 times.
A|---------------------------|
E|---------------------------|

G|---------------------------|
D|---------------------------|Play this 2 times.
A|-5-5---5-5---5-5---0-3-4-5-|
E|---------------------------|

how to play it:

Intro/Chorus - 1 time.
Bridge       - 1 time.
Verse        - 1 time.
Intro/Chorus - 1 time.
Bridge       - 1 time.
Verse        - 1 time.
Intro/Chorus - 1 time.
Bridge       - 4 times.
Intro/Chorus - 6 times.
Bridge       - 3 times.

That's all. i hope you enjoy it and please rate and comment
            
Submit corrections

comments powered by Disqus
↑ Back to top | Kenny Wayne Shepherd Bass for Honky Tonk. Lyrics for acoustic guitar and electric guitar. 1 Tablatures and chords are parodies/interpretations of the original songs. You may use it for private study, scholarship, research or language learning purposes only