» » »

Kenny Rankin, Pussywillows Cattails Tabs (ver.1)

Artists:  A B C D E F G H I J K L M N O P Q R S T U V W X Y Z # 

Pussywillows Cattails Tabs (ver.1)

Kenny Rankin Tabs
 Rating:
3.5/5 (8 votes)
Pussywillows Cattails lessons Tabs too difficult? Try these video lessons and learn fast
                

The song is originaly performed by Gordon Lightfoot on the album
'Did She Mention My Name'.
The tab below is the song as performed by Kenny Rankin.

Kenny Rankin - Pussywillows Cattails

Standard tuning

chords:

Em7     010000
D       000232
C       032010
Em add2 024000
Asus2   x02200
Em add4 002000
Gsus2   320033

6/3
Intro:
  Em7              D                C                Em add2          Em7
|-------0--------------0h2p0---------------------------------0--------------0-----|
|---------0------------------3---0------1-0h1p0------------0---0--------------0---|
|-----0-----0--------2---------2----------------2-0------0----------------0-------|
|---0--------------0------------------2----------------4----------------0-------0-|
|-----------------------------------3---------------------------------------------|
|-0--------------------------------------------------0----------------0-----------|

  D                C                Asus2
|-----0h2p0-------------------------------0----------------0-------|
|-----------3---0--------0h1p0--------------0----------------------|
|---2---------2----------------2-0------2-----2----------2---2-----|
|-0------------------2----------------2----------------2-------2---|
|------------------3---3------------0----------------0-------------|
|------------------------------------------------------------------|


Verse 1:
  Em add2          D                C                Em add2
|---------0------------2h3-2------------0------------------0-------|
|-------0------------3-------3------------1------------------0-----|
|-----0-----0------------------2--------0---0------------0-----0---|
|---4--------------0------------------2-------2--------4-----------|
|-----------------------------------3------------------------------|
|-0--------------------------------------------------0-------------|
  Pussywillows     cattails           soft wind and    roses

  Em               D                C                Em add2
|---------0------------0h2p0-------------------------------0-------|
|-----------0----------------3---0------0h1------------------0-----|
|-----0--------------2---------2------0---------0--------0-----0---|
|---2---2----------0------------------------0-2--------4-----------|
|-----------------------------------3------------------------------|
|-0--------------------------------------------------0-------------|
  Rainpools in the woodland         water to my      knees

  Em add4            D                Gsus2            Em add2
|-----0---0------------3-2-0----------------0h3-------------------------0---------|
|--------------------3-------3----------3------------------0----------0---0---0---|
|-------0---0-------------------------0---0--------------0-----0------------------|
|---2--------------0-----------------------------------4-----4--------------4---4-|
|-0-------------------------------------------------------------------------------|
|-----------------------------------3-----------3----0----------------------------|
  Shivering        quivering the    warm breath of   spring

  Em               D                C                Em add4
|-------0--------------0h2--------------0--------------------0-----|
|---------0----------3-----3---0----------1---1------------0-------|
|-----0-----0----------------2--------------0------------0-----0---|
|---2--------------0------------------2----------------2-----------|
|-----------------------------------3----------------0-------------|
|-0----------------------------------------------------------------|
  Pussywillows         cattails         soft        wind        and

  Em add2                           A7               Em add4
|-------0----------------0------------------0--------------0-------|
|---------0----------------0------------0h2---2p0--------0---0-----|
|-----0-----0----------0-----0--------------------0------------0---|
|---4----------------4----------------2----------------2-----------|
|------------------2----------------0----------------0-------------|
|-0----------------------------------------------------------------|
  roses

Verse 2:
  Em add2          D                C                Em add2
|---------0------------0h2p0--------------1------------------0--------|
|-----------0----------------3---0----------0--------------0---0------|
|-----0--------------2---------2--------0-----0-----------0-----------|
|---4---4----------0------------------2----------------4--------------|
|-----------------------------------3---------------------------------|
|-0--------------------------------------------------0----------------|
  Catbirds and     cornfields       daydreams      together

  Em add2          D                C                Em add2
|---------0------------0h2p0---------------------------------0-----|
|----------------------------3---0--------1----------------0---0---|
|-----0-----0--------2---------2--------0---0------------0---------|
|---4---4----------0------------------2-------0--------4-----------|
|-----------------------------------3------------------------------|
|-0--------------------------------------------------0-------------|
  Riding on the    roadside the     dust gets in your eyes

  Em add4          D                Gsus2            Em add2
|---------0------------3---2--------------------------------------------------0---|
|------------------------3---3----------0---3--------------0----------------0-----|
|-------0---0--------2----------------0---0---0----------0---0------------0-------|
|---0-2------------0-----------------------------------4-------4--------4-------4-|
|-0-------------------------------------------------------------------------------|
|-----------------------------------3----------------0----------------0-----------|
  Reveling         disheveling the  summer night can bring

  Em               D                C                Em add4
|-------0--------------2h3p2--------------0------------------0-----|
|---------0------------------3---0----------1--------------0-------|
|-----0-----0--------2---------2--------0-----0----------0-----0---|
|---2--------------0------------------2----------------2-----------|
|-----------------------------------3----------------0-------------|
|-0----------------------------------------------------------------|
  Pussywillows         cattails         soft        wind        and

  Em add2          D                C                Em add2
|---------0------------0h2p0-------------------------------0----------------0-----|
|-------0--------------------3---0------1-0------------------0----------------0---|
|-----0-----0--------2---------2------------2-0----------0-----0----------0-------|
|---4--------------0------------------2----------------4----------------4-------4-|
|-----------------------------------3---------------------------------------------|
|-0--------------------------------------------------0----------------0-----------|
  roses
  D                C                Asus2
|-----2-0---------------------------------0----------------0--------|
|---------3------------1-0h1p0--------------0-----------------------|
|---2-------2------------------2-0------2-----2----------2---2------|
|-0------------------2----------------2----------------2-------2----|
|------------------3----------------0----------------0--------------|
|-------------------------------------------------------------------|


Verse 3:
  Em               D                C                Em add2
|-----0----------------2--------------------------------------------|
|-------0------------------3-0--------------1-----------------------|
|---0-----0----------2---2--------------0--------------2-0-----0----|
|-----------2------0------------------2---2---2------------2-4------|
|-----------------------------------3-------------------------------|
|-0--------------------------------------------------0--------------|
  Slanted rays and colored days     stark blue     horizons

  Em               D                C                Em add2
|-------0---0--------2----------------0-------0------------0--------|
|---------0------------3---3------------1---1----------------0------|
|-----0------------------2---2------------0------------2-0-----0----|
|---2--------------0------------------------------------------------|
|-----------------------------------3-------------------------------|
|-0--------------------------------------------------0--------------|
  Naked limbs and  wheat bins       hazy        afternoons

  Em add4          D                Gsus2            Em add2
|---------0------------0----------------------------------------------------0-----|
|------------------------3-1------------0---3--------------3----------------------|
|-----0-----0--------2-------2--------0---0---0----------0-----0----------0---0---|
|---2---2----------0-----------------------------------4-----4----------4-------4-|
|-0-------------------------------------------------------------------------------|
|-----------------------------------3----------------0----------------0-----------|
  Voicing        rejoicing the      wine cups to     bring

  Em add2          D                C                Em add2
|---------0------------0h2p0------------0--------------------0------|
|-------0---0----------------3---0--------1----------------0--------|
|-----0--------------2---------2------------0-2----------0-----0----|
|---4--------------0------------------2----------------2------------|
|-----------------------------------3----------------0--------------|
|-0-----------------------------------------------------------------|
  Pussywillows         cattails         soft        wind         and

  Em add2                           Asus2
|---------0--------------0----------------0-------------------------|
|-------0------------------0------------2---2-----------------------|
|-----0-----0----------0-----0--------2-------0----------2-0--------|
|---4----------------4---------------------------------2-----4-2----|
|-----------------------------------0----------------0--------------|
|-0----------------0------------------------------------------------|
  roses

Verse 4:
  Em               D                C                Em add2
|---------0------------2-0-----------------------------------0------|
|-------0---0----------------0----------------1------------0--------|
|-----0--------------2-----2------------0---0------------0-----0----|
|---2--------------0------------------2---2------------4------------|
|-----------------------------------3-------------------------------|
|-0--------------------------------------------------0--------------|
  Hars nights and  candlelights     wood fires     a-blazin

  Em add2          D                C                 Em add2
|-------0--------------0h2----------------0-----------------0--------|
|---------0-3--------3-----3---0--------1---3-0---------------0------|
|-----0----------------------2--------------------------2-0-----0----|
|---4--------------0------------------2------------------------------|
|-----------------------------------3--------------------------------|
|-0---------------------------------------------------0--------------|
  Soft lips and    fingertips       resting in my     soul

  Em add4          D                Gsus2             Em add2
|---------0------------0-----------------------------------------------------------|
|------------------------3-1----------------3-0------------------------------------|
|-----0-----0--------2-------2----------0-----------------0-4---0----------0-4---0-|
|---2---2----------0----------------------0-------------4-----4--------2-4-----4---|
|-0-----------------------------------2--------------------------------------------|
|-----------------------------------3-----------------0----------------------------|
  Treasuring     remembering the    promise of        spring

  Em add2          D                C                Em add2
|----------------------0h2p0-----0------0--------------------0-----|
|-------0--------------------3------------0-1----------0-1-0---0---|
|-----0---2-0--------2---------2--------------0--------------------|
|---4--------------0------------------2----------------------------|
|-----------------------------------3----------------0-------------|
|-0----------------------------------------------------------------|
  Pussywillows         cattails         soft        wind        and

  Em add2                           A7
|------------------------0------------------0--------------0-------|
|-----0--------------------0------------0h2---2p0------------0-----|
|-------0---0----------0-----0---------------------0-----0-----0---|
|---------4----------4----------------2----------------2-----------|
|---2--------------2----------------0----------------0-------------|
|-0----------------------------------------------------------------|
  roses                                                         and

  Em add2                           A7
|--------------------------0----------------0----------------0-----|
|-----0------------------0---0------------2---2------------2-------|
|-------0---0----------0----------------0----------------0-----0---|
|---4-----4----------4----------------2----------------2-----------|
|-----------------------------------0----------------0-------------|
|-0----------------0-----------------------------------------------|
  roses                                           and      the

  Em add2                           Em add4
|---------0----------------0----------------0----------------------|
|----------------------0-----0----------0-----0----------0---------|
|-----0-----0------------0----------------0----------------0-2h4-2-|
|---4---4------------4----------------2----------------2-----------|
|-----------------------------------0----------------0-------------|
|-0----------------0-----------------------------------------------|
  soft             winds

  Em add2                           Em add4
|---------0----------------0----------------0----------------0-----|
|-------0----------------0----------------0------------------0-----|
|-----0-----0----------0-----0----------0-----0------------0-------|
|---4----------------4----------------2--------------2---2-----0---|
|-----------------------------------0------------------0-----------|
|-0----------------0-----------------------------------------------|

  Em add2                           Em add4                                       H
|---------0--------------0----------------0------------------0----------------0---12-|
|-------0------------------0------------0---0--------------0----------------0--------|
|-----0-----0----------0-----0----------------0----------0-----0----------0-----0----|
|---4----------------4----------------2----------------2----------------2------------|
|------------------2----------------0----------------0-------------------------------|
|-0-------------------------------------------------------------------0--------------|
            
Submit corrections

comments powered by Disqus
↑ Back to top | Kenny Rankin Tabs for Pussywillows Cattails. Lyrics for acoustic guitar and electric guitar. Tablatures and chords are parodies/interpretations of the original songs. You may use it for private study, scholarship, research or language learning purposes only